Libido

Início > Libido > acordes

Libido Tablatura

Libido

Dificultad:ExpertoExperto

joce4578

tuner correct add songbook print version text version salvar en e-mail
acordesukuleletablaturabajobateríaarmónicaflautacavacopiano Guitar Pro
acordes

Libido

	  ACORDES : 
     Em    G    C    B    Em*    G*     C*    B* 
e/---0-----3----3----2-----7-----10-----8-----7--- 
b/---0-----3----5----4-----8-----12-----8-----7--- 
g/---0-----4----5----4-----9-----12-----9-----8--- 
D/---2-----5----5----4-----9-----12----10-----9--- 
A/---2-----5----3----2-----7-----10----10-----9--- 
E/---0-----3----3----2-----7-----10-----8-----7--- 
 
Estos acordes los toca la 2º guit. todo el tiempo: 
     E5   G5   C5   B5 
e/---x----x----x----x--- 
b/---x----x----x----x--- 
g/---x----x----5----4--- 
D/---2----5----5----4--- 
A/---2----5----3----2--- 
E/---0----3----x----x--- 
 
 
 
*Riff 1* 
e/--------------------------------------------------------------- 
b/-------------------------1---------0--------------------------- 
g/------0--------0-------0---0-----0---0------------------------- 
D/----2---0----0---0--------------------------------------------- 
A/---------------------3---------2------------------------------- 
E/--0--------3--------------------------------------------------- 
 
*Riff 2* 
e/-------------------------0---------0--------------------------- 
b/---------------------------1---------0------------------------- 
g/------0--------0-------0---------0----------------------------- 
D/----2---0----0---0--------------------------------------------- 
A/---------------------3---------2------------------------------- 
E/--0--------3--------------------------------------------------- 
 
*Riff 3* 
e/--------------------------------------------------------------- 
b/----8-------8-------8---10---8--------------------------------- 
g/--9---9---9---9---9---9----9---9------------------------------- 
D/--------------------------------------------------------------- 
A/--------------------------------------------------------------- 
E/--------------------------------------------------------------- 
 
e/--------------------------------------------------------------- 
b/----8-------8-------8---7-8-7---------------------------------- 
g/--9---9---9---9---9---9---------------------------------------- 
D/--------------------------------------------------------------- 
A/--------------------------------------------------------------- 
E/--------------------------------------------------------------- 
 
e/------------------------7-------------------------------------- 
b/----8-------8-------8-----8---8-------------------------------- 
g/--9---9---9---9---9---9-----9---------------------------------- 
D/--------------------------------------------------------------- 
A/--------------------------------------------------------------- 
E/--------------------------------------------------------------- 
 
e/--------------------------------------------------------------- 
b/----8-------8-------8---7-8-7---------------------------------- 
g/--9---9---9---9---9---9---------------------------------------- 
D/--------------------------------------------------------------- 
A/--------------------------------------------------------------- 
E/--------------------------------------------------------------- 
 
*Solo* 
e/--------------------------------------------------------------- 
b/------8-10--10---10--8--10--8---------------------------------- 
g/--7-9--------9-----------9--9---7/9---------------------------- 
D/--------------------------------------------------------------- 
A/--------------------------------------------------------------- 
E/--------------------------------------------------------------- 
 
e/--------------------------------------------------------------- 
b/------8-10--10---10--8-----8--10--8-10--10-8------------------- 
g/--7-9--------9----------9------------9---9-9------------------- 
D/--------------------------------------------------------------- 
A/--------------------------------------------------------------- 
E/--------------------------------------------------------------- 
 
e/-12------12------12-----12--12--12--12------------------------- 
b/---12-12---12-12---12-10--10--12--12--------------------------- 
g/--------------------------------------------------------------- 
D/--------------------------------------------------------------- 
A/--------------------------------------------------------------- 
E/--------------------------------------------------------------- 
 
e/--12-----12-----12--12--12----12-12-12------------------------- 
b/----12-12--12-12--12--12--12--12-12-12------------------------- 
g/--------------------------------------------------------------- 
D/--------------------------------------------------------------- 
A/--------------------------------------------------------------- 
E/--------------------------------------------------------------- 
 
*Punteo 1* 
e/--------------------------------------------------------------- 
b/--------------------------------------------------------------- 
g/----9---------------------------------------------------------- 
D/--------------------------------------------------------------- 
A/--------------------------------------------------------------- 
E/--------------------------------------------------------------- 
 
*Punteo 2* 
e/--------7-----7------------------------------------------------ 
b/----8-----8---------------------------------------------------- 
g/--9---9-----9-------------------------------------------------- 
D/--------------------------------------------------------------- 
A/--------------------------------------------------------------- 
E/--------------------------------------------------------------- 
 
*Punteo 3* 
e/---10--7------------------7-----7-----7-----7------------------ 
b/-----------8---7---8----8---8-----8-----8-----8---------------- 
g/------------------------------9-----9-----9-----9-------------- 
D/--------------------------------------------------------------- 
A/--------------------------------------------------------------- 
E/--------------------------------------------------------------- 
 
 
INTRO: 
 
  *Riff 1* 
  *Riff 1* 
  *Riff 1* 
  *Riff 2* 
 
 
  Nos vimos de nuevo y pensaste en volver a mi           )ACA SIGUE EL 
                                                         )*Riff 1* 4 veces 
  Me tienes contigo y no sabes lo que aprendi...         ) 
 
 
 
                Em      G     C 
  A llorar sin lagrimas 
 
          B             Em    G    C 
  a no creer en los sueños 
 
             B             Em 
  a no envolverme en tus besos 
 
         G     C              B         Em      G     C    B 
  ni en tus caricias por que todas son mentiras 
 
 
 
                  Em*     G*    C* 
  Y te quito las ropas 
 
       B*               Em*   G*   C* 
  y yo entro en tu cuerpo 
 
        B*        Em* 
  y juntando las almas 
 
       G*         C*        B*        Em* 
  su cuerpo y el mio se envuelven en 
 
     G*        C*     B* 
  libidooooo..... 
 
 
 
  *Riff 1* 
 
  *Riff 2* 
 
 
  Termino tu sueño de ser la dueña de mi                  ) Aca sigue el *Riff 1* 
                                                          ) 4 veces 
  Y empieza tu infierno tu premio a lo que aprendi        ) 
 
 
 
                Em      G     C 
  Aaaaaaaaaaaaaaaaaa....... 
 
          B             Em    G    C 
  a no creer en los sueños 
 
             B             Em 
  a no envolverme en tus besos 
 
         G     C              B         Em      G     C    B 
  ni en tus caricias por que todas son mentiras 
 
 
 
 
                  Em*     G*    C* 
  Y te quito las ropas 
 
       B*               Em*   G*   C* 
  y yo entro en tu cuerpo 
 
        B*        Em* 
  y juntando las almas 
 
       G*         C*        B*        Em* 
  su cuerpo y el mio se envuelven en 
 
     G*        C*     B* 
  wooooooooo..... 
 
     C*        B* 
  eeeeeeeeeeeaaaaaaaaaaaa 
 
      C*      B* 
  aaaaaaaaaaaaaaaaaaaa 
 
 
 
  *Solo* 
 
 
                  Em     G    C 
  Y te quito las ropas!!!!! 
 
       B                Em   G   C 
  y yo entro en tu cuerpo 
 
        B         Em 
  y juntando las almas 
 
       G          C         B        Em 
  su cuerpo y el mio se envuelven en 
 
     G        C     B 
  ...................... 
 
 
 
                  Em*     G*    C* 
  Y te quito las ropas!!!!!!! 
 
       B*               Em*   G*   C* 
  y yo entro en tu cuerpo 
 
        B*        Em* 
  y juntando las almas 
 
       G*         C*        B*        Em* 
  su cuerpo y el mio se envuelven en 
 
     G*        C*     B* 
  EEEEEEEEEEEEEEEAAAAAAAAAAAAAAAAAA 
 
    (ACA NO HAY ACORDES) 
  oooooooooooooooooooooooeeeeeeeeeeeeee 
 
 
  *Riff 3* 
 
           *Punteo 1*          Em* 
  No quiero verte jamas con el 
 
                      *Punteo 2*    Em* 
  El odio y mi alma se ponen de pie 
 
                      *Punteo 3* 
  Con un arma a la mano no se q hacer..... 
 
 
 
    Em       G         C         B 
  EEEEEEEEEEEEEEEE   ooooooooooooooooo 
 
 
    Em       G         C         B 
  EEEEEEEEEEEEEEEE EEEEEEEEEAAAAAAAAAA 
 
 
   Em          G      C         B 
  EEEEEEEEEEEEEEEE EEEEEEEEEAAAAAAAAAA 
 
 
   Em         G      C            B 
  EEEEEEEEEEEEEEEE EEEEEEEEEeeeeeeeeee 
 
 
     C                 B 
  EEEEEEEE eeeeeeeeeeeeaaaaaaaaaaaaa 
 
 
        C       B 
  EEEEEEEE eeeeeeeeee 
 
 
         Em 
  EEE EEEEEAAAAAAAAAAAAAAAAAAAAAAAAAAAAAAOOOOOOOOOOOOOOOOOOO.......... 
 

	  

No existe una video leccione para esta canción

request
LosAcordes
Buscar
auto avanzar rasgueos aumentar disminuir cambiar color esconder acordes gráficos
losacordes exhibir acordes losacordes youTube video losacordes ocultar tabs losacordes ir hacia arriba losacordes