La Vela Puerca

Início > La Vela Pu... > acordes

El Viejo Tablatura

La Vela Puerca

Dificultad:FácilFácil

apUu

tuner correct add songbook print version text version salvar en e-mail
acordesukuleletablaturabajobateríaarmónicaflautacavacopiano Guitar Pro
acordes

El Viejo

	  e/------------------------------------ 
B/-------------------------------------- 
G/--9—-6-8-9—-6-8-6--------------------- 
D/-------------------9-7-6----6--------- 
A/-------------------------7----9-7--6-- 
E/-------------------------------------- 

e/------------------------------- 
B/------------------------------- 
G/--9—-6-8-9—-6-8-6-------------- 
D/-------------------9-7-6----6---- 
A/-------------------------7----9-- 
E/------------------------------- 

e/-------------------------------------- 
B/-------------------------------------- 
G/--9—-6-8-9—-6-8-6--------------------- 
D/-------------------9-7-6----6--------- 
A/-------------------------7----9-7--6-- 
E/-------------------------------------- 

e/--------------------------------- 
B/--------------------------------- 
G/--9—-6-8-9—-6-8-6---------------- 
D/-------------------9-7-6----6---- 
A/-------------------------7----9-- 
E/--------------------------------- 

SOLO:/----------------------------------------- 
/--7s9*--9*--9*--9------------------------ 
/-------------------11h9--11h9--11h9--11-- 
/----------------------------------------- 
/----------------------------------------- 
/----------------------------------------- 

/-------------------------------------- 
/-------------------------------------- 
/------9---------9---------9----------- 
/-9-11---11-9-11---11-9-11---11-------- 
/--------------------------------9s11*- 
/-------------------------------------- 


e/--7s9-9**---11-12-14-12--11-12-14-12- 
b/------------------------------------- 
g/------------------------------------- 

e/--14-12-14-12-14-12-16b-(17)-16-------- 
b/--------------------------------------- 
g/--------------------------------------- 
	  

No existe una video leccione para esta canción

request
LosAcordes
Buscar
auto avanzar rasgueos aumentar disminuir cambiar color esconder acordes gráficos
losacordes exhibir acordes losacordes youTube video losacordes ocultar tabs losacordes ir hacia arriba losacordes