Kurt Vile

Início > Kurt Vile > acordes

Kv Crimes Tablatura

Kurt Vile

Dificultad:Ningún gradoNingún grado

bombaXXX

tuner correct add songbook print version text version salvar en e-mail
acordesukuleletablaturabajobateríaarmónicaflautacavacopiano Guitar Pro
acordes

Kv Crimes

	  KV Crimes ~ Kurt Vile 
from "Wakin On a Pretty Daze" 

Riff 1: 
E|-3---3---3-3-----1-------1-------| 
B|-3---6---5-3-----1-------1-------| 
G|-5---5---5-5-----3-------2-------| 
D|-5---------------3-------3-------| 
A|---------------------------------| 
e|---------------------------------|  
        
Riff 2: 
E|---3-----3-----------------------| 
B|-----3-----3---------------------| 
G|-5-----5-----0-2-2/3-----2-------| 
D|---------------------------------| 
A|---------------------------------| 
e|---------------------------------| 

Riff 3: 
E|------------------------------------------------| 
B|------------------------------------------------| 
G|------------------------------------------------| 
D|-7---5-------12--3-------7---5---5/7/10-3-------| 
A|-5---3-------10--1-------5---3---3/5/8--1-------| 
e|------------------------------------------------| 

First Solo: 
E|---------------------------------------------| 
B|-6p5-------------------6p5-------------------| 
G|-----7p5-7p5-5-------------7p5---------------| 
D|-------------------------------8-------------| 
A|---------------------------------------------| 
e|---------------------------------------------| 

E|---------------------------------------------| 
B|-6p5-------------------6---8b--6-----6h8p6---| 
G|-----7p5-7p5-5-----5h7---------------------7-| 
D|---------------------------------------------| 
A|---------------------------------------------| 
e|---------------------------------------------| 

E|-8p5-----------------------------------------| 
B|-----8p6---------------6---6-----------------| 
G|---------7-5-------5h7-----------------------| 
D|-----------------------------5-\3----3h5p3---| 
A|-------------------------------------------5-| 
e|---------------------------------------------| 

E|---------------------------------------------| 
B|---------------------------------------------| 
G|-------------------------------3-3--/7-------| 
D|-------------------------------3-3--/7-------| 
A|-3h5p3-3-----------------------1-1--/5-------| 
e|---------------------------------------------| 

Second Solo: 
E|---------------------------------------------| 
B|-6-5-------------------6-5-------------------| 
G|-----7-5-7-5---------------7-5---------------| 
D|-------------------------------8-------------| 
A|---------------------------------------------| 
e|---------------------------------------------| 

E|---------------------------------------------| 
B|-6-5-------------------6---8b-6------6h8p6---| 
G|-----7-5-7-5-------5h7---------------------7-| 
D|---------------------------------------------| 
A|---------------------------------------------| 
e|---------------------------------------------| 

E|-8p5-----------------------------------------| 
B|-----6h8p6-------------6---8b-6--------------| 
G|-----------7-5-----5h7----------5h7----------| 
D|------------------------------------5--3h5-3-| 
A|---------------------------------------------| 
e|---------------------------------------------| 

E|---------------------------------------------| 
B|---------------------------------------------| 
G|-------------------------------3-3--/7-------| 
D|-3h5p3-------------------------3-3--/7-------| 
A|-------5-3---------------------1-1--/5-------| 
e|---------------------------------------------| 

Note: several variations can be played off each riff. The tablature above is  
just a skeletal representation of the song, not a note-by-note deconstruction. 
	  

No existe una video leccione para esta canción

request
LosAcordes
Buscar
auto avanzar rasgueos aumentar disminuir cambiar color esconder acordes gráficos
losacordes exhibir acordes losacordes youTube video losacordes ocultar tabs losacordes ir hacia arriba losacordes