Kiss

Início > Kiss > acordes

War Machine Tablatura

Kiss

Dificultad:IntermedioIntermedio

tuner correct add songbook print version text version salvar en e-mail
acordesukuleletablaturabajobateriaarmónicaflautacavacopiano Guitar Pro
acordes

War Machine

Áño: 1982 - Álbum: Creatures of the Night

	   
e|------------------------------------------------ 
B|------------------------------------------------ 
G|------------------------------------------------ 
D|------------------------------------------------ 
A|----2---0---2---2-------0----------------------- 
E|--0---0---0---0---0--3-------------------------- 
 
E|-------------------------------------------------| 
B|-------------------------------------------------| 
G|-------------------------------------------------| 
D|---2--5--7-7-5-7-------7--5--9--5--2--2--5--2---2| 
A|---2--5--7-7-5-7-------7--5--9--5--2--2--5--2---2| 
E|---0--3--5-5-3-5-------5--3--7--3--0--0--3--0---0| 
 
 
Riff pra ir pro refrão: 
 
E|-------------------------------------------| 
B|-------------------------------------------| 
G|-------------------------------------------| 
D|---2---5---7--7--5--7-------7---5---7---5--| 
A|---2---5---7--7--5--7-------7---5---7---5--| 
E|---0---3---5--5--3--5-------5---3---5---3--| 
 
E|---------------------------------------| 
B|---------------------------------------| 
G|---------------------------------------| 
D|---9--9--7--9--9--7--9--9--9---7---9---| 
A|---9--9--7--9--9--7--9--9--9---7---9---| 
E|---7--7--5--7--7--5--7--7--7---5---7---| 
 
No refrão vc toca a intro enquanto ele canta com com alguma base... 
 
Wanna bite the band that feeds me 
Wanna turn the tides 
Set the demons free and watch 'em fly 
Strike down the one who leads me 
I'm gonna take his place 
Gonna vindicate the human race 
 
Refrão 
Better watch out 
'Cause I'm a war machine 
Better watch out 
'Cause I'm a war machine 
 
Take the reins of power and seize them 
Draw the battle lines 
Armageddon's just a matter of time 
Tear down the voice of reason 
Let the arrows fly 
Your freedom's just a state of mind, yeah 
 
Refrão final 
 
Better watch out 
'Cause I'm a war machine 
You better watch out 
'Cause I'm a war machine, yeah 
You better watch out 
'Cause I'm a war machine 
You better watch out 
'Cause I'm a war machine 
Better watch out 
'Cause I'm a war machine 
I'm a war machine 
I'm a war machine.... 
 
_______________________________________________________ 
Contribuição: Almir Junior([email protected]) 

	  

No existe una video leccione para esta canción

request
LosAcordes
Buscar
auto avanzar rasgueos aumentar disminuir cambiar color esconder acordes gráficos
losacordes exhibir acordes losacordes youTube video losacordes ocultar tabs losacordes ir hacia arriba losacordes