Kiss

Início > Kiss > acordes

Two Sides Of The Coin Tablatura

Kiss

Dificultad:Ningún gradoNingún grado

andrsouza

tuner correct add songbook print version text version salvar en e-mail
acordesukuleletablaturabajobateríaarmónicaflautacavacopiano Guitar Pro
acordes

Two Sides Of The Coin

	  Key: 
/    = slide up 
\    = slide down 
b    = bend (whole step) 
b^   = bend (1/2 step) 
b^^  = bend (1 1/2 steps) 
pb   = pre-bend 
r    = release-bend 
t    = tap with righthand finger 
h    = hammer-on 
p    = pull-off 
~    = Vibrato 
*    = Natural Harmonic 
#(#) = Trill 
**   = Artificial Harmonic 
x    = Dead notes (no pitch) 
P.M. = Palm mute (- -> underneath indicates which notes) 
(\)  = Dive w\bar 
(/)  = Release w\bar 
Tp   = Tap w\plectrum 
Rhythm Fig. 1 

Db|--7-------7--------------5-------5-----------------------| 
Bb|--7-------7--------------5-------5-----------------------| 
Gb|--7-------7--------------5-------5-----------------------| 
Db|--7-------7--------------5-------5-----------------------| 
Gb|---------------------------------------------------------| 
Db|-------3-------3--3--3--------3-------3--3--3------------| 
    Let ring - - - - - - - - - - - - - - - - - - > 



Db|---------------------------------------------------------| 
Bb|----0--1--0--1--0----0-----------0-----------------------| 
Gb|----0--0--0--0--0----0--7--7--5--0-----------------------| 
Db|----0--2--0--2--0----0--7--7--5--0-----------------------| 
Gb|----0--0--0--0--0----0--7--7--5--0-----------------------| 
Db|---------------------------------------------------------| 


End 1 

Db|---------------------------------------------------------| 
Bb|--0-----------0------------------------------------------| 
Gb|--0--7--7--5--0------------------------------------------| 
Db|--0--7--7--5--0------------------------------------------| 
Gb|--0--7--7--5--0------------------------------------------| 
Db|---------------------------------------------------------| 



Rhythm Fig. 2 

Eb|---------------------------------------------------------| 
Bb|---------------------------------------------------------| 
Gb|---------------------------------------------------------| 
Db|--7--7--7--7--7--7--7--7--5--5--5--5--5--5--5--5---------| 
Ab|--5--5--5--5--5--5--5--5--3--3--3--3--3--3--3--3---------| 
Eb|---------------------------------------------------------| 
     P.M. - - - - - - - - - - - - - - - - - - - - > 


Eb|---------------------------------------------------------| 
Bb|---------------------------------------------------------| 
Gb|----4--5--4--5--4----4-/7--7--5--4-----------------------| 
Db|----5--5--5--5--5----5-/7--7--5--5-----------------------| 
Ab|---------------------------------------------------------| 
Eb|---------------------------------------------------------| 


End 1 

Eb|---------------------------------------------------------| 
Bb|---------------------------------------------------------| 
Gb|--4-/7--7--5--4------------------------------------------| 
Db|--5-/7--7--5--5------------------------------------------| 
Ab|---------------------------------------------------------| 
Eb|---------------------------------------------------------| 



Rhythm Fig. 3a (all bends 1/4-step) 

Db|-----------------5-------------------5-------------------| 
Bb|-----------------3-------------------3-------------------| 
Gb|-----------------0-------------------0-------------------| 
Db|---------------------------------------------------------| 
Gb|--0--1b---0-----------0--1b---0--------------------------| 
Db|---------------------------------------------------------| 
            Let ring ->         Let ring -> 


Db|---------------------------------------------------------| 
Bb|---------------------------------------------------------| 
Gb|--5--5--5/-7--7--7----5--5--5--5/-7--7--7----------------| 
Db|--5--5--5/-7--7--7----5--5--5--5/-7--7--7----------------| 
Gb|--5--5--5/-7--7--7----5--5--5--5/-7--7--7----------------| 
Db|---------------------------------------------------------| 



Rhythm Fig. 3b (all bends 1/4-step) 

Eb|-----------------3-------------------3-------------------| 
Bb|-----------------3-------------------3-------------------| 
Gb|-----------------0-------------------0-------------------| 
Db|---------------------------------------------------------| 
Ab|-----1b------------------1b------------------------------| 
Eb|--3-------3-----------3-------3--------------------------| 
            Let ring ->         Let ring -> 


Eb|---------------------------------------------------------| 
Bb|---------------------------------------------------------| 
Gb|--5--5--5/-7--7--7----5--5--5--5/-7--7--7----------------| 
Db|--5--5--5/-7--7--7----5--5--5--5/-7--7--7----------------| 
Ab|--3--3--3/-5--5--5----3--3--3--3/-5--5--5----------------| 
Eb|---------------------------------------------------------| 



Rhythm Fig. 4a 

Db|---------------------------------------------------------| 
Bb|----7-7-7--7---------------------------------------------| 
Gb|----7-7-7--7---------------------------------------------| 
Db|----7-7-7--7---------------------------------------------| 
Gb|----7-7-7--7---------------------------------------------| 
Db|---------------------------------------------------------| 



Rhythm Fig. 4b 

Eb|---------------------------------------------------------| 
Bb|---------------------------------------------------------| 
Gb|----7-7-7--x-x-------------------------------------------| 
Db|----7-7-7--x-x-------------------------------------------| 
Ab|----5-5-5--x-x-------------------------------------------| 
Eb|---------------------------------------------------------| 




Rhythm Fig. 5a 

Db|---------------------------------------------------------| 
Bb|--12----13----12------5----5--5h-6----6p-5---------------| 
Gb|--12----12----12------5----5--5--5----5--5---------------| 
Db|--12----14----12------5----5--5h-7----7p-5---------------| 
Gb|--12----12----12------5----5--5----5--5------------------| 
Db|---------------------------------------------------------| 


Db|---------------------------------------------------------| 
Bb|--12----13----12------5----6p-5--7-----------------------| 
Gb|--12----12----12------5----5--5--7-----------------------| 
Db|--12----14----12------5----7p-5--7-----------------------| 
Gb|--12----12----12------5----5-----7-----------------------| 
Db|---------------------------------------------------------| 



Rhythm Fig. 5b 

Eb|---------------------------------------------------------| 
Bb|--------12----x-x-12~-------------5----x-x-5~------------| 
Gb|--------12----x-x-12~-------------5----x-x-5~------------| 
Ab|--12----12----x-x-12~---------5---5----x-x-5~------------| 
Db|--12h14-----------------------5h7------------------------| 
Eb|---------------------------------------------------------| 



Eb|---------------------------------------------------------| 
Bb|--------12----x-x-12~-------------5--------7--7~---------| 
Gb|--------12----x-x-12~-------------5--------7--7~---------| 
Db|--12----12----x-x-12~---------5---5--------7--7~---------| 
Ab|--12h14-----------------------5h7----7/-9----------------| 
Eb|---------------------------------------------------------| 



Rhythm Fig. 6a 

Db|---------------------------------------------------------| 
Bb|---------------------------------------------------------| 
Gb|--7--7--7--7--7--7--7--7------5--5-----------------------| 
Db|--7--7--7--7--7--7--7--7------5--5-----------------------| 
Gb|--7--7--7--7--7--7--7--7------5--5-----------------------| 
Db|---------------------------------------------------------| 



Rhythm Fig. 6b 

Eb|---------------------------------------------------------| 
Bb|---------------------------------------------------------| 
Gb|--7--7--7--7--7--7--7--7---------------------------------| 
Db|--7--7--7--7--7--7--7--7---------------------------------| 
Ab|--5--5--5--5--5--5--5--5---------------------------------| 
Eb|---------------------------------------------------------| 



Rhythm Fig. 6c 

Db|---------------------------------------------------10-10-| 
Bb|---------------------------------------------------10-10-| 
Gb|--7--7--7--7--7--7--7--7---------------------------10-10-| 
Db|--7--7--7--7--7--7--7--7---------------------------------| 
Gb|--7--7--7--7--7--7--7--7---------------------------------| 
Db|---------------------------------------------------------| 



Rhythm Fig. 7a (let ring throughout) 

Db|-10-10---------10-------10--12--------12---------12------| 
Bb|-10----10--------10------------11---------11---------11--| 
Gb|-10--------10--------10------------10---------10---------| 
Db|---------------------------------------------------------| 
Ab|---------------------------------------------------------| 
Db|---------------------------------------------------------| 




Db|-----10--------10--------10----10--------10----------8-8-| 
Bb|--------11--------11---------------10--------10------8-8-| 
Gb|--10--------10--------10----10---------10--------10--8-8-| 
Db|---------------------------------------------------------| 
Ab|---------------------------------------------------------| 
Db|---------------------------------------------------------| 




Db|--8--8--------8--------8--10-------10-------10-----------| 
Bb|--8-----8--------8------------9--------9--------9--------| 
Gb|--8--------8--------8------------8--------8--------------| 
Db|---------------------------------------------------------| 
Ab|---------------------------------------------------------| 
Db|---------------------------------------------------------| 




Db|-----8--------8--------8------8--------8--------6-6------| 
Bb|--------9--------9---------------8--------8-----6-6------| 
Gb|--8--------8--------8------8--------8--------8--6-6------| 
Db|---------------------------------------------------------| 
Ab|---------------------------------------------------------| 
Db|---------------------------------------------------------| 




Db|--6--6--------6--------6---8--------8--------8-----------| 
Bb|--6-----6--------6------------7--------7--------7--------| 
Gb|--6--------6--------6------------6--------6--------------| 
Db|---------------------------------------------------------| 
Ab|---------------------------------------------------------| 
Db|---------------------------------------------------------| 




Db|-----6--------6--------6------6--------6--------5-5------| 
Bb|--------7--------7---------------6--------6-----5-5------| 
Gb|--6--------6--------6------6--------6--------6--5-5------| 
Db|---------------------------------------------------------| 
Ab|---------------------------------------------------------| 
Db|---------------------------------------------------------| 



Db|--5--5--------5--------5---7--------7--------7-----------| 
Bb|--5-----5--------5------------6--------6--------6--------| 
Gb|--5--------5--------5------------5--------5--------------| 
Db|---------------------------------------------------------| 
Ab|---------------------------------------------------------| 
Db|---------------------------------------------------------| 



Db|-----5--------5--------5---5-----------------------------| 
Bb|--------6--------6---------5-----------------------------| 
Gb|--5--------5--------5------5----------7-7-7--7-----------| 
Db|--------------------------------------7-7-7--7-----------| 
Ab|--------------------------------------7-7-7--7-----------| 
Db|---------------------------------------------------------| 



Rhythm Fig. 7b (Light P.M. throughout) 


Eb|---------------------------------------------------------| 
Bb|---------------------------------------------------------| 
Gb|---------------------------------------------------------| 
Db|--10-10-10-10--10--10--10--10--10--10--10--10--10--10----| 
Ab|--8--8--8--8---8---8---8---8---8---8---8---8---8---8-----| 
Eb|---------------------------------------------------------| 
              < - - 6x - - > 



Eb|---------------------------------------------------------| 
Bb|---------------------------------------------------------| 
Gb|---------------------------------------------------------| 
Db|--8-8-8--8--8--8--8--8--8--8--8--8--8--8--6-6-6----------| 
Ab|--6-6-6--6--6--6--6--6--6--6--6--6--6--6--4-4-4----------| 
Eb|---------------------------------------------------------| 
           < - - 6x - > 



Eb|---------------------------------------------------------| 
Bb|---------------------------------------------------------| 
Gb|---------------------------------------------------------| 
Db|--6--6--6--6--6--6--6--6--6--6--6--5-5-5--5--5--5--5-----| 
Ab|--4--4--4--4--4--4--4--4--4--4--4--3-3-3--3--3--3--3-----| 
Eb|---------------------------------------------------------| 
    < - - 6x - >                             < - 6x - > 



Eb|---------------------------------------------------------| 
Bb|---------------------------------------------------------| 
Gb|----------------x-x--------------------------------------| 
Db|--5------7-7-7--x-x--------------------------------------| 
Ab|--3------5-5-5--x-x--------------------------------------| 
Eb|---------------------------------------------------------| 



Riff 1 

Db|---------------------------------------------------------| 
Bb|---------5--5--------------------------------------------| 
Gb|----7----5--5--------------------------------------------| 
Db|----7----5--5--------------------------------------------| 
Gb|----7----5--5--------------------------------------------| 
Db|---------------------------------------------------------| 

Ace Frehley 
	  

No existe una video leccione para esta canción

request
LosAcordes
Buscar
auto avanzar rasgueos aumentar disminuir cambiar color esconder acordes gráficos
losacordes exhibir acordes losacordes youTube video losacordes ocultar tabs losacordes ir hacia arriba losacordes