Kiss

Início > Kiss > acordes

Thrills in the night Tablatura

Kiss

Dificultad:ExpertoExperto

tuner correct add songbook print version text version salvar en e-mail
acordesukuleletablaturabaixobateríaarmónicaflautacavacopiano Guitar Pro
acordes

Thrills in the night

	  Obs.: Eta musica tem o solo muito cheio de tecnicas com alavanca eu 
      tirei o solo certinho so que fica um pouco dificil esplicar 
      para as pessoas de como ele é feito. tchau! 
 
 
Afinaçao de meio tom abaixo. ( Eb ) 
 
O guitarrista Bruce Kulick usa muito a alavanca. Nessa múica eu vou passar a tab sem a alavanca. 
 
Guitarra Paul. ( D, E, D, E, C, E, D ). 
 
Guitarra Bruce. 2x 
 
E|----------------------------------12h14h15--14?12h14h12----12------------------ 
B|---15--15b--15b--15?15b?15b----------------------------15---13?12h-13---------- 
G|---------------------------------------------------------------------------14~- 
D|------------------------------------------------------------------------------- 
A|------------------------------------------------------------------------------- 
E|------------------------------------------------------------------------------- 
 
E|--------------------------------------------15b(17)--15?12h15p12-----12h14h15- 
B|---------12h15p12-----12h15p12------------------------------------15b--------- 
G|---14b--------------14b------------14b---------------------------------------- 
D|------------------------------------------------------------------------------ 
A|------------------------------------------------------------------------------ 
E|------------------------------------------------------------------------------ 
 
E|--14?12h14--12---12--------------------20(22)- 
B|--------------------15---13?12h13------------- 
G|----------------------------------------12---- 
D|---------------------------------------------- 
A|---------------------------------------------- 
E|---------------------------------------------- 
 
Guitarra Paul. 
 
E|------------ 
B|------------     
G|----9---9---        4x   
D|----9---9--- 
A|----7---7--- 
E|------------ 
 
Guitarra Bruce. 
 
E|---------- 
B|---------- 
G|----9----- 
D|----9----- 
A|---------- 
E|---------- 
 
Ponte. ( ambas ) 
 
E|---------------------------- 
B|---------------------------- 
G|---------------------------- 
D|---4---5---9---5---9---7---- 
A|---2---3---7---3---7---5---- 
E|---------------------------- 
 
E|---------------------------- 
B|---------------------------- 
G|---------------------------- 
D|---5---9---5---9---7x--7x--- 
A|---3---7---3---7---5x--5x--- 
E|---------------------------- 
 
Refrao é a base do começo. 
 
Essa musica é a estudio. 
Existe uma pequena diferençao dela com a ao vivo. 
 
Falô galera!!!!!! 
	  

No existe una video leccione para esta canción

request
Aumentar uno tonoAumentar uno tono
Aumentar uno semi-tonoAumentar uno semi-tono
Disminuir uno semi-tonoDisminuir uno semi-tono
Disminuir uno tonoDisminuir uno semi-tono
LosAcordes
Buscar
auto avanzar rasgueos aumentar disminuir cambiar color esconder acordes gráficos
losacordes exhibir acordes losacordes youTube video losacordes ocultar tabs losacordes ir hacia arriba losacordes