Kiss

Início > Kiss > acordes

Rock'n Roll All Nite Tablatura

Kiss

Dificultad:Ningún gradoNingún grado

Shakau

tuner correct add songbook print version text version salvar en e-mail
acordesukuleletablaturabajobateríaarmónicaflautacavacopiano Guitar Pro
acordes

Rock'n Roll All Nite

(Kiss)

	  
		 
Intro 2x: C#  Ab  D# 
Riff 1: 

   C# 
E|------------------------------------------ 
B|-6h7-6h7-6--6-7-6-7--6-------------------- 
G|-6-------6--6-6-6-6--6-------------------- 
D|-6h8-6h8-6--6-8-6-8--6-------------------- 
A|------------------------------------------ 
E|------------------------------------------ 
                 


Riff 2: 

   Ab               D# 
E|------------------------------------------ 
B|-x-1--1-1-1-1-1-x-8-8-9--8-9--8----------- 
G|-x-1--1-1-1-1-1-x-8-8-8--8-8--8----------- (2x) 
D|-x-1--1-3-1-3-1-x-8-8-10-8-10-8----------- 
A|-x---------------------------------------- 
E|------------------------------------------ 
                    


Primeira parte: 

   Ab               D# 
E|------------------------------------------ 
B|-x-1--1-1-1-1-1-x-8-8-9--8-9--8----------- 
G|-x-1--1-1-1-1-1-x-8-8-8--8-8--8----------- (2x) 
D|-x-1--1-3-1-3-1-x-8-8-10-8-10-8----------- 
A|-x---------------------------------------- 
E|------------------------------------------ 
                    


   C#               D# 
E|------------------------------------------ 
B|-x-6-6-7-6-7-6--x-8-8-9--8-9--8----------- 
G|-x-6-6-6-6-6-6--x-8-8-8--8-8--8----------- 
D|-x-6-6-8-6-8-6--x-8-8-10-8-10-8----------- 
A|------------------------------------------ 
E|------------------------------------------ 
                  


 C# 
E|------------------------------------------ 
B|-6h7-6h7-6--6-7-6-7--6-------------------- 
G|-6-------6--6-6-6-6--6-------------------- 
D|-6h8-6h8-6--6-8-6-8--6-------------------- 
A|------------------------------------------ 
E|------------------------------------------ 
                 


   E5               F#5 
E|------------------------------------------ 
B|-5--5--5-5---5----7--7-7-7-7-------------- 
G|-4--4--4-4---4----6--6-6-6-6-------------- 
D|-2--2--2-2---2----4--4-4-4-4-------------- 
A|------------------------------------------ 
E|------------------------------------------ 
                     


   E5                F#5 
E|------------------------------------------ 
B|-5--5--5-5---5--7--7--7-7-7-7-7-7-7------- 
G|-4--4--4-4---4--6--6--6-6-6-6-6-6-6------- 
D|-2--2--2-2---2--4--4--4-4-4-4-4-4-4------- 
A|------------------------------------------ 
E|------------------------------------------ 
                        


Ab                    D# 
   You show us everything you got 
Ab                          D# 
   You keep dancin'and the room gets hot 
C#               D#                    C# 
   You drive us wild we'll drive you crazy 
Ab                        D# 
   And you say you wanna go for a spin 
Ab                               D# 
   The party's just begun we'll let you in 
C#               D#                    C# 
   You drive us wild we'll drive you crazy 
E5                      F#5 
  You keep on shoutin' you keep on shoutin' 

Refrão: 
Ab                         C# 
I wanna rock and roll all night 
D# 
   And party everyday 
Ab                         C# 
I wanna rock and roll all night 
D# 
   And party everyday 
Ab 
I wanna rock and roll all night 
   And party everyday 

I wanna rock and roll all night 
   And party everyday 
Refrão: 

   Ab  C#             D# 
E|------------------------------------------ 
B|-1---X-6--6-7-6-7-6-X-8--8-9--8-9--8------ 
G|-1---X-6--6-6-6-6-6-X-8--8-8--8-8--8------ 
D|-1---X-6--6-8-6-8-6-X-8--8-10-8-10-8------ 
A|------------------------------------------ 
E|------------------------------------------ 
                         


   C# 
E|------------------------------------------ 
B|-6h7-6h7-6--6-7-6-7--6-------------------- 
G|-6-------6--6-6-6-6--6-------------------- 
D|-6h8-6h8-6--6-8-6-8--6-------------------- 
A|------------------------------------------ 
E|------------------------------------------ 
                 


( C# ) 

Ab                            D# 
   You keep sayin' you'll be mine for a while 
Ab                             D# 
   You're looking fancy and I like your style 
C#               D#                    C# 
   You drive us wild we'll drive you crazy 

Ab                        D# 
   And you show us everything you got 
Ab                        D# 
   And baby baby that's quite a lot 
C#               D#                    C# 
   You drive us wild we'll drive you crazy 

Refrão: 
Ab                         C# 
I wanna rock and roll all night 
D# 
   And party everyday 
Ab                         C# 
I wanna rock and roll all night 
D# 
   And party everyday 
Ab 
I wanna rock and roll all night 
   And party everyday 

I wanna rock and roll all night 
   And party everyday 

E5                      F#5 
  You keep on shoutin' you keep on shoutin' 

(Refrão) 

( C# ) 
Solo: 

E|--3/4-4-4------4------4------4------4------4------4- 
B|--3/4-4-4------4------4------4------4------4------4- 
G|----------6b-6---6b-6---6b-6---6b-6---6b-6---6b-6--- 
D|---------------------------------------------------- 
A|---------------------------------------------------- 
E|---------------------------------------------------- 



E|------4-7p4---------------------------------------- 
B|------4-----7p4------------------------6b-4-------- 
G|-6b-6-----------6p4h6p4---6b-4h6p4---4-6b-4h6p4---- 
D|-----------------------------------6------------6-- 
A|--------------------------------------------------- 
E|--------------------------------------------------- 



E|---------------------------------------------------- 
B|--4h6p4-6b--6-4h6p4---4h6--------------------------- 
G|--4h6p4-6b--6-4h6p4---4h6b/------------------------- 
D|--------------------6------------------------------- 
A|---------------------------------------------------- 
E|---------------------------------------------------- 



E|---------------------------------------------------- 
B|-6h7-6h7-6--6-7-6-7--6------------------------------ 
G|-6-------6--6-6-6-6--6------------------------------ 
D|-6h8-6h8-6--6-8-6-8--6------------------------------ 
A|---------------------------------------------------- 
E|---------------------------------------------------- 



E|----------16-------16----------16-------16---------- 
B|----------16-------16----------16-------16---------- 
G|-18b20-20----18b20----18b20-20----18b20------------- 
D|---------------------------------------------------- 
A|---------------------------------------------------- 
E|---------------------------------------------------- 



E|----------16-------16-16---------------------------- 
B|----------16-------16----19p16----16-19p16h19p16---- 
G|-18b20-20----18b20-------------18----------------18- 
D|---------------------------------------------------- 
A|---------------------------------------------------- 
E|---------------------------------------------------- 



E|---------------------------------------------------- 
B|----16h19p16h19p16----16h19p16----16----16---------- 
G|-18----------------18----------18----18------------- 
D|---------------------------------------------------- 
A|---------------------------------------------------- 
E|---------------------------------------------------- 



E|-19b21--19~-----------------19---------------------- 
B|------------16-19p16-------------------------------- 
G|------------18-------18b20-----18b20r18p16---------- 
D|-------------------------------------------18------- 
A|---------------------------------------------------- 
E|---------------------------------------------------- 



E|---------------------------------------------------- 
B|-6h7-6h7-6--6-7-6-7--6------------------------------ 
G|-6-------6--6-6-6-6--6------------------------------ 
D|-6h8-6h8-6--6-8-6-8--6------------------------------ 
A|---------------------------------------------------- 
E|---------------------------------------------------- 



E|---------------------------------------------------- 
B|---------------------------------------------------- 
G|-12h13-----14----12h13p12h13p12h13------------------ 
D|-12h13--14-14-14------------------------------------ 
A|---------------------------------------------------- 
E|---------------------------------------------------- 



E|--------------------18-------16--------------------- 
B|--------------------------------14------------------ 
G|-15----16-----16/18----18\16----14h15--------------- 
D|-16-16-16-16---------------------------------------- 
A|---------------------------------------------------- 
E|---------------------------------------------------- 


E5                      F#5 
  You keep on shoutin' you keep on shoutin' 

(Refrão) 

( C#  E5  F#5  Ab5 ) 
Solo - Parte Final 
E|---------------------------------------------------- 
B|--6b7r6-4-6-4--------------------------------------- 
G|--6b7r6-4-6-4--------------------------------------- 
D|--------------6-4-6-4----------6/------------------- 
A|----------------------6--------6/------------------- 
E|------------------------4------4/------------------- 
	  

No existe una video leccione para esta canción

request
Aumentar uno tonoAumentar uno tono
Aumentar uno semi-tonoAumentar uno semi-tono
Disminuir uno semi-tonoDisminuir uno semi-tono
Disminuir uno tonoDisminuir uno semi-tono
LosAcordes
Buscar
auto avanzar rasgueos aumentar disminuir cambiar color esconder acordes gráficos
losacordes exhibir acordes losacordes youTube video losacordes ocultar tabs losacordes ir hacia arriba losacordes