Kiss

Início > Kiss > acordes

Rock Bottom [introdução] Tablatura

Kiss

Dificultad:Ningún gradoNingún grado

Digovisk

tuner correct add songbook print version text version salvar en e-mail
acordesukuleletablaturabajobateríaarmónicaflautacavacopiano Guitar Pro
acordes

Rock Bottom [introdução]

	   
Parte  A 
 
E ----5-----------7----------8-------------7------------5-------------------------- 
b  ---------6-----------6----------6------------6-------------6--------------------- 
G  ------------7-----------7-----------7-----------7--------------7---------------                    2x 
D  ------------------------------------------------------------------------------------ 
A  ------------------------------------------------------------------------------------- 
E  -------------------------------------------------------------------------------------- 
 
Parte B 
 
E------5-----------7----------8------------------------------------------------------------- 
b-----------5----------5-----------5-------------------------------------------------------- 
G--------------5----------5-----------5----------------------------------------------------             2x 
D------------------------------------------------------------------------------------------------ 
A-------------------------------------------------------------------------------------------- 
E----------------------------------------------------------------------------------------------- 
 
Parte C 
 
E-----7----------8--------10--------  8-------------------------------------------------------------- 
b---------8----------8----------8-----------8---------------------------------------------------------- 
G------------9----------9----------9-----------9------------------------------------------------------ 
D--------------------------------------------------------------------------------------------------------- 
A----------------------------------------------------------------------------------------------------------  
E--------------------------------------------------------------------------------------------------------- 
 
Volte para a               parte B                    2x 
 
Agora é uma outra parte é Final Da introdução 
 
E-----12-------------13--------------15-------------13-----------------7-----------8---------10----------8---------------- 
b-----------13--------------13-------------13---------------13--------------8-----------8-----------8----------8------------ 
G---------------14---------------14-------------14---------------14------------9-----------9-----------9----------9------- 
D-------------------------------------------------------------------------------------------------------------------------------------- 
A-------------------------------------------------------------------------------------------------------------------------------------- 
E--------------------------------------------------------------------------------------------------------------------------------------- 
 
----5----------7--------8--------7-----------7-------8--------10----------8------------------ 
--------6---------6--------6--------6-----------8--------8----------8---------8------------------------------ 
-----------7---------7--------7-------7------------9--------9----------9----------9---------------------------- FIM 
------------------------------------------------------------------------------------------------------------------------ 
--------------------------------------------------------------------------------------------------------------------------- 
 
2x    parte B        
 
Rock n` Roll     Se balguem souber o resto da musica passe pra min Beleza 
 
[email protected] 
Essa música é um pouco complexa e dificil de se entender la vai!!!!                  1 /2 tom a baixo 

	  

No existe una video leccione para esta canción

request
Aumentar uno tonoAumentar uno tono
Aumentar uno semi-tonoAumentar uno semi-tono
Disminuir uno semi-tonoDisminuir uno semi-tono
Disminuir uno tonoDisminuir uno semi-tono
LosAcordes
Buscar
auto avanzar rasgueos aumentar disminuir cambiar color esconder acordes gráficos
losacordes exhibir acordes losacordes youTube video losacordes ocultar tabs losacordes ir hacia arriba losacordes