Kiss

Início > Kiss > acordes

Rock and Roll All Nite Tablatura

Kiss

Dificultad:AdelantadoAdelantado

monje

tuner correct add songbook print version text version salvar en e-mail
acordesukuleletablaturabaixobateriaarmónicaflautacavacopiano Guitar Pro
acordes

Rock and Roll All Nite

Áño: 1978 - Álbum: Gold

(Paul Stanley/ Gene Simmons)

	  
Riff 1: Ab5 Eb5 

Ab5 
e|---------------------| 
B|---7--7---6--7--7--6-| 
G|---6--6---6--6--6--6-| 
D|---8--8---6--8--8--6-| 
A|---------------------| 
E|---------------------| 
    Ab5  Eb5 
e|--------------------------------------| 
B|-----------9---9--8----------9---9--8-| 
G|-------8---8---8--8-------8--8---8--8-| 
D|---6---8---10--10-8----6--8--10--10-8-| 
A|---6---6---------------6--6-----------| 
E|---4-------------------4--------------| 

Verse: 

    Ab5  Eb5 
e|--------------------------------------| 
B|-----------9---9--8----------9---9--8-| 
G|-------8---8---8--8-------8--8---8--8-| 
D|---6---8---10--10-8----6--8--10--10-8-| 
A|---6---6---------------6--6-----------| 
E|---4-------------------4--------------|  

Db5 Db6 Db5 Eb5 Eb6 Eb5 

Ab5 
e|---------------------| 
B|---7--7---6--7--7--6-| 
G|---6--6---6--6--6--6-| 
D|---8--8---6--8--8--6-| 
A|---------------------| 
E|---------------------| 

Pre-Chorus: E5 Gb5 

Chorus: Ab5 Db5 Db6 Db5 Eb5 Eb6 Eb5 (2x) 

Riff 1: Ab5 Eb5 

Ab5 
e|---------------------| 
B|---7--7---6--7--7--6-| 
G|---6--6---6--6--6--6-| 
D|---8--8---6--8--8--6-| 
A|---------------------| 
E|---------------------| 
    Ab5  Eb5 
e|--------------------------------------| 
B|-----------9---9--8----------9---9--8-| 
G|-------8---8---8--8-------8--8---8--8-| 
D|---6---8---10--10-8----6--8--10--10-8-| 
A|---6---6---------------6--6-----------| 
E|---4-------------------4--------------| 

Verse: 

    Ab5  Eb5 
e|--------------------------------------| 
B|-----------9---9--8----------9---9--8-| 
G|-------8---8---8--8-------8--8---8--8-| 
D|---6---8---10--10-8----6--8--10--10-8-| 
A|---6---6---------------6--6-----------| 
E|---4-------------------4--------------|  

Db5 Db6 Db5 Eb5 Eb6 Eb5 

Ab5 
e|---------------------| 
B|---7--7---6--7--7--6-| 
G|---6--6---6--6--6--6-| 
D|---8--8---6--8--8--6-| 
A|---------------------| 
E|---------------------| 

Pre-Chorus: E5 Gb5 

Chorus: Ab5 Db5 Db6 Db5 Eb5 Eb6 Eb5 (2x) 

	  

No existe una video leccione para esta canción

request
Aumentar uno tonoAumentar uno tono
Aumentar uno semi-tonoAumentar uno semi-tono
Disminuir uno semi-tonoDisminuir uno semi-tono
Disminuir uno tonoDisminuir uno semi-tono
LosAcordes
Buscar
auto avanzar rasgueos aumentar disminuir cambiar color esconder acordes gráficos
losacordes exhibir acordes losacordes youTube video losacordes ocultar tabs losacordes ir hacia arriba losacordes