Kiss

Início > Kiss > acordes

Man Of 1000 Faces Tablatura

Kiss

Dificultad:Ningún gradoNingún grado

andrsouza

tuner correct add songbook print version text version salvar en e-mail
acordesukuleletablaturabajobateríaarmónicaflautacavacopiano Guitar Pro
acordes

Man Of 1000 Faces

	  Key: 
/    = slide up 
\    = slide down 
b    = bend (whole step) 
b^   = bend (1/2 step) 
b^^  = bend (1 1/2 steps) 
pb   = pre-bend 
r    = release-bend 
t    = tap with righthand finger 
h    = hammer-on 
p    = pull-off 
~    = Vibrato 
*    = Natural Harmonic 
#(#) = Trill 
**   = Artificial Harmonic 
x    = Dead notes (no pitch) 
P.M. = Palm mute (- -> underneath indicates which notes) 
(\)  = Dive w\bar 
(/)  = Release w\bar 
Tp   = Tap w\plectrum 
Rhythm Fig. 1 

E |---------------------------------------------------| 
B |----------------8--8--7-7----7----9h10--10-10-9----| 
G |----------------7--7--7-7----7----9-9---9--9--9----| 
D |----------------9--9--7-7----7----9h11--11-11-9----| 
A |--0----0----0--------------------------------------| 
E |---------------------------------------------------| 





E |---------------------------------------------------| 
B |-------------------8--8--7-7----7----9h10--10-10-9-| 
G |-------------------7--7--7-7----7----9-9---9--9--9-| 
D |--12----12----12---9--9--7-7----7----9h11--11-11-9-| 
A |--0-----0-----0------------------------------------| 
E |---------------------------------------------------| 



Rhythm Fig. 2 

E |---------------------------------------------------| 
B |---------------------------------------------------| 
G |--------------------------------------------5--7---| 
D |--------------------------------------------5--7---| 
A |--0--0--0--0--0--0--0--0--0--0--0--0--0--0---------| 
E |---------------------------------------------------| 
    P.M. - - - - - - - - - - - - - - - - - > 


E |---------------------------------------------------| 
B |---------------------------------------------------| 
G |--2--------------------------------5------7--------| 
D |--2--------------------------------5------7--------| 
A |-----0--0--0--0--0--0--0--0--0--0--3------5--------| 
E |---------------------------------------------------| 
       P.M. - - - - - - - - - - - > 


Rhythm Fig. 3 

E |---------------------------------------------------| 
B |---------------------------------------------------| 
G |--------5--------------------7---------------------| 
D |--------5--------------------7---------------------| 
A |--3--3--3--------------5--5--5---------------------| 
E |---------------------------------------------------| 
    P.M.                 P.M. 


Rhythm Fig. 4a 

E |---------------------------------------------------| 
B |---------------------------------------------------| 
G |--6-----------------11-----------------------------| 
D |--7-----------------12-----------------------------| 
A |--7-----------------12-----------------------------| 
E |--5------------5/---10------------12\--------------| 



Rhythm Fig. 4b 
E |---------------------------------------------------| 
B |---------------------------------------------------| 
G |--6-----------------13-----------------------------| 
D |--7-----------------14-----------------------------| 
A |--7-----------------14-----------------------------| 
E |--5------------5/---12-----------------------------| 



Rhythm Fig. 5 

E |---------------------------------------------------| 
B |----------------------------------------5----7-----| 
G |----------------------------------------5----7-----| 
D |--7-7-7--7--7----7----7--7-7-7--7--7---------------| 
A |---------------------------------------------------| 
E |---------------------------------------------------| 
    Slight P.M. - - - - - - - - - - -> 

Rhythm Fig. 6 

E |---------------------------------------------------| 
B |---------------------------------------------------| 
G |--6------------------------------------------------| 
D |--7-----------------9--9--9--9--9--9--9--9---------| 
A |--7-----------------7--7--7--7--7--7--7--7---------| 
E |--5------------5/----------------------------------| 



E |---------------------------------------------------| 
B |---------------------------------------------------| 
G |---------------------------------------------------| 
D |--7--7--7--7--7--7--7--7--9--9--9--9--9--9--9--9---| 
A |--5--5--5--5--5--5--5--5--7--7--7--7--7--7--7--7---| 
E |---------------------------------------------------| 



E |---------------------------------------------------| 
B |---------------------------------------------------| 
G |---------------------------------------------------| 
D |--7--7--7--7--5--5--5--5---------------------------| 
A |--5--5--5--5--3--3--3--3---------------------------| 
E |---------------------------------------------------| 



Rhythm Fig. 7 

E |---------------------------------------------------| 
B |---------------------------------------------------| 
G |--2---------------5------------5-5---0-0-----------| 
D |--2---------------5------------5-5---0-0-----------| 
A |--0------------0--0--------------------------------| 
E |---------------------------------------------------| 
    Let ring - - - - - - - - - - - - - - - > 


Rhythm Fig. 8 

E |---------------------------------------------------| 
B |---------------------------------------------------| 
G |--------14~---------14~---------14~---------7------| 
D |--------14~---------14~---------14~---------7------| 
A |--0--0--------0--0--------0--0--------3--3--5------| 
E |---------------------------------------------------| 
    P.M.        P.M.        P.M.        P.M. 


E |---------------------------------------------------| 
B |-----------------------------13----15--------------| 
G |--------14~---------14~------12----14--------------| 
D |--------14~---------14~------14----16--------------| 
A |--0--0--------0--0--------0------------------------| 
E |---------------------------------------------------| 
    P.M.        P.M. 


Rhythm Fig. 9 

E |---------------------------------------------------| 
B |---------------------------------------------------| 
G |---------------------------------------------------| 
D |---------------------------------------------------| 
A |--3--3--3--3--3--3--3--3--5--5--5--5--5--5--15\----| 
E |--------------------------------------------15\----| 
   P.M. - - - - - - - - - - - - - - - - - - > 

Riff 1 

E |------------12-12----------------------------------| 
B |--12--------------12-12-12-------------------------| 
G |---------------------------------------------------| 
D |---------------------------------------------------| 
A |---------------------------------------------------| 
E |---------------------------------------------------| 


Riff 2 

E |--15----15--------------17---17-17-----------------| 
B |---------------------------------------------------| 
G |--12----12--------------14---14-14-----------------| 
D |---------------------------------------------------| 
A |---------------------------------------------------| 
E |---------------------------------------------------| 


Riff 3 

E |--12------------------14---------------------------| 
B |---------------------------------------------------| 
G |--9-------------------11---------------------------| 
D |---------------------------------------------------| 
A |---------------------------------------------------| 
E |---------------------------------------------------| 



Riff 4 

E |---------------------------------------------------| 
B |---------------10----------------------------------| 
G |------------9--------------------------------------| 
D |------11-11----------------------------------------| 
A |---------------------------------------------------| 
E |---------------------------------------------------| 



E |-------------------------------12------------------| 
B |---------------10----14p12-14----------------------| 
G |------------9--------------------------------------| 
D |------11-11----------------------------------------| 
A |---------------------------------------------------| 
E |---------------------------------------------------| 




Solo 

E |------------16--14------------------------------------------| 
B |--17----------------17--19--------------17--15--17----------| 
G |------------------------------------------------------------| 
D |------------------------------------------------------------| 
A |------------------------------------------------------------| 
E |------------------------------------------------------------| 



E |---------------------12--16--14-------------12--------------| 
B |--17-------------12-----(12)-----15-------------13----------| 
G |-------------13----------------------14-------------12------| 
D |---------14------------------------------16-------------14--| 
A |------------------------------------------------------------| 
E |------------------------------------------------------------| 




MAN OF 1,000 FACES 
Simmons 

Rhy. Fig 1 

Rhy. Fig 2 
I walk the streets by day 
I never know what I¥m going to say 

Rhy. Fig 3 
It doesn¥t matter anyway 

Rhy. Fig 4a 
Man of a 1,000 faces 
Man of a 1,000 faces 
Man of a 1,000 faces 
Rhy. Fig 4b with Riff 1 
Who¥s the man 

Rhy. Fig 5 
For years I lived inside my dreams 
Somehow I¥ve made them real it seems 

Rhy. Fig 3 with Riff 2 
I make my own rules, because I am 

Rhy. Fig 4a 
Man of a 1,000 faces 
Man of a 1,000 faces 
Man of a 1,000 faces 

Rhy. Fig 6 with Solo 
Who¥s the man 

Rhy. Fig 7 

Rhy. Fig 8 
I can put on any face 
You won¥t know me but it¥s no disgrace 

Rhy. Fig 9 with Riff 3 
The king of night he understands 

Rhy. Fig 4a 
Man of a 1,000 faces 
Man of a 1,000 faces 
Man of a 1,000 faces 
Rhy. Fig 4b 
Who¥s the man 

Rhy. Fig 4a with Riff 4 
Man of a 1,000 faces 
Man of a 1,000 faces 
Man of a 1,000 faces 
Rhy. Fig 4b 
Who¥s the man 

(repeat and fade) 
	  

No existe una video leccione para esta canción

request
LosAcordes
Buscar
auto avanzar rasgueos aumentar disminuir cambiar color esconder acordes gráficos
losacordes exhibir acordes losacordes youTube video losacordes ocultar tabs losacordes ir hacia arriba losacordes