Kiss

Início > Kiss > acordes

Let's Put The X In Sex Tablatura

Kiss

Dificultad:ExpertoExperto

tuner correct add songbook print version text version salvar en e-mail
acordesukuleletablaturabajobateríaarmónicaflautacavacopiano Guitar Pro
acordes

Let's Put The X In Sex

Áño: 1988 - Álbum: Smashes, Thrashes & Hits

	   
tuning: D tuning (1=D, 2=A, 3=F, 4=C, 5=G, 6=D) 
 
Riff 1 (intro)  
|-----------------------------------------| 
|--8--8--8--8--7---7--7h-8--8--8--8--7----| 
|--7--7--7--7--7---7--7-----7--7--7--7----| 
|--9--9--9--9--7---7--7h-9--9--9--9--7----| 
|-----------------------------------------| 
|-----------------------------------------| 
 
|-------------------------------------------------| 
|--8--8--8--8--7---9--9h-10--10--10--10---9-------| 
|--7--7--7--7--7---9--9-------9---9--9----9-------| 
|--9--9--9--9--7---9--9h-11--11--11--11---9-------| 
|-------------------------------------------------| 
|---------------------------------------------12-| 
 
Riff 2 (guitar 1) verse 
|-----------------------------------------------| 
|-10----10--10-----10--8-----7------------------| 
|--9-----9---9------9--7-----7------------------| 
|--7-----7---7------7--5-----7------------------| 
|-----0----------0-----------5---------0--------| 
|--------------------------------0--3-----------| 
 
Riff 2 (guitar 2) verse 
|------------------------------------------------------------------------| 
|---------------------------------------------------3--3-----------------| 
|---------------------------------------------------2--2-----------------| 
|--------------------------0-1-2--------------------0--0-----------------| 
|--0-3-0-3-0----0--0-3-0----------------1---1-------------3-0-3------0---| 
|-------------3--------------------3--3---3----3-1---------------0-3-----| 
 
Riff 3 (bridge) 
|--------------------------------3----------------------------| 
|--------------------------------3-----7--7--7--7--7----------| 
|--------------------------------0-----7--7--7--7--7----------| 
|--------------------------------0-----7--7--7--7--7----------| 
|--2---4---2-2-4---2---4----2----x-----5--5--5--5--5-------0--| 
|--0-0-0-0-0-0-0-0-0-0-0-0-0-----3---------------------0-3----| 
 
Riff 4 (chorus) guitar 2 plays riff 2 
|----------------------------------------------| 
|-10----10--10-----10--8-----7-----------------| 
|--9-----9---9------9--7-----7-----------------| 
|--7-----7---7------7--5-----7-----------------| 
|-----0----------0-----------5--------0--------| 
|-------------------------------0--3-----------| 
 
|----------------------------------3--------------| 
|----------------------------------3-----3--------| 
|----------------------------------0-----2--------| 
|--------------------------0-1-2---0-----0--------| 
|--0-3-0-3-0----0--0-3-0-----------x--------------| 
|-------------3--------------------3--------------| 
 
Solo 
|--------------------------------------------------------| 
|--------------------------------------------------------| 
|-----------17--19-b(21)--19-17-17-19-19-17-19-17-~~~~~--| 
|--14-/-19-----------------------------------------------| 
|--------------------------------------------------------| 
|--------------------------------------------------------| 
  
|-------------------------------------------------------| 
|---------/-20---8-b(10)--8-5--------------------------| 
|-(17)-------------------------8-7-5-------------------| 
|--------------------------------------7-5--------------| 
|--------------------------------------------7-6-5------| 
|-------------------------------------------------------| 
 
|------------------------------------------------------| 
|------------------------------------------------------| 
|--7-5-------------------------------------------------| 
|-------7-5-----5-b(1/4)-7-5---------------------------| 
|------------7--------------------7-7-5----5-~~~~~-----| 
|----------------------------------------7-------------| 
 
|--20-b(22)--20-b(22)-r20-~~~~-------------| 
|-------------------------------17--20-----| 
|------------------------------------------| 
|------------------------------------------| 
|------------------------------------------| 
|------------------------------------------| 
  
|--17-20-17-------------------------------------------------------------| 
|------------20-17-20-17-----------17----------20-17--------------------| 
|--------------------------19-b(21)-----19-(21)---------20-19--17-~~~~~-| 
|-----------------------------------------------------------------------| 
|-----------------------------------------------------------------------| 
|-----------------------------------------------------------------------| 
  
|-----------------------------------------20-b(22)--20-b(22)--------------| 
|---------------------20-b(22)-r-20---17----------------------------------| 
|--19-b(21)--17-~~~------------------------------------------5-5-------7--| 
|------------------------------------------------------------------7-7----| 
|-------------------------------------------------------------------------| 
|-------------------------------------------------------------------------| 
 
|-------------------------------------------| 
|-------------------------------------------| 
|--7-b(9)-7-7-7-7-7-7-r-7--5----------------| 
|------------------------------7--5--------| 
|-------------------------------------------| 
|-------------------------------------------| 
 
_______________________________________________________ 
Contribuição: Eduardo([email protected]) 
	  

No existe una video leccione para esta canción

request
LosAcordes
Buscar
auto avanzar rasgueos aumentar disminuir cambiar color esconder acordes gráficos
losacordes exhibir acordes losacordes youTube video losacordes ocultar tabs losacordes ir hacia arriba losacordes