Kiss

Início > Kiss > acordes

I was made for lovin'you Tablatura

Kiss

Dificultad:ExpertoExperto

ironmejiab

tuner correct add songbook print version text version salvar en e-mail
acordesukuleletablaturabajobateríaarmónicaflautacavacopiano Guitar Pro
acordes

I was made for lovin'you

	  KISS                                          Carlos Eduardo Mejia Bernal 
                                              (Medellin,Colombia) 
                                               [email protected] 
 
I WAS MADE FOR LOVIN´YOU 
 
b(xxx):bend 
/:slide 
 
 
INTRO:(Guitarra 1) Em 
 
Guitarra 2 Riff 1            "guitarra 3" 
    (punteo del intro) 
e----------------------------I-----11-11-8---------------------------- 
b-10-8-10-10-8-----7-5-7-7-5-I-------------11-11-8-------------------- 
g-9--9-9--9--9-----7-5-7-7-5-Ix3--------------------11-8-b(8-9-10)---- 
d----------------------------I---------------------------------------- 
a----------------------------I---------------------------------------- 
e----------------------------I---------------------------------------- 
 
e--------------------------------------- 
b-b(8-9-10)-10-------------------------- 
g---------------8-10-8----8-b(8-9-10)--- 
d----------------------10--------------- 
a--------------------------------------- 
e--------------------------------------- 
 
Riff 1 
 
Du du du dudududu du du du du dudu 
 
VERSO:1 Riff 2 
Em 
TONIGHT  
        G5                
I WANT TO GIVE IT ALL TO YOU  
      A5  
IN THE DARKNESS  
           Em  
THERE'S SO MUCH I WANT TO DO  
    G5  
AND TONIGHT  
                  A5 
I WANT TO LAY IT AT YOUR FEET  
        E5        
'CAUSE GIRL I WAS MADE FOR YOU  
     D5  
GIRL YOU WERE MADE FOR ME  
  
CORO:Riff 1 
 
d---------------------- 
a---------------------- 
e------12/5------------ 
 
I WAS MADE FOR LOVING YOU BABY  
YOU WERE MADE FOR LOVING ME  
 AND I CAN'T GET ENOUGH FOR YOU BABY  
CAN YOU GET ENOUGH OF ME ?  
 
VERSO 2:Riff 2 
Em 
TONIGHT  
                         G5  
I WANT TO SEE IT IN YOUR EYES  
        A5  
FEEL THE MAGIC  
              Em  
SOMETHING THAT DRIVES ME WILD  
    G5  
AND TONIGHT  
                    A5  
WE'RE GONNA MAKE IT ALL COME TRUE  
                Em  
'CAUSE GIRL YOU WERE MADE FOR ME  
D5  
GIRL I WAS MADE FOR YOU 
 
d------------------------- 
a------------------------- 
e----12/5----------------- 
 
CORO:Riff 1 X2 
 
 I WAS MADE FOR LOVING YOU BABY  
YOU WERE MADE FOR LOVING ME  
 AND I CAN'T GET ENOUGH FOR YOU BABY  
CAN YOU GET ENOUGH OF ME ?  
 
Riff 3:E5-C5-D5 
 
I CAN GET ENOUGH AAAHH AAHH 
I CAN GET ENOUGH AAHH  AAHH 
I CAN GET ENOUH 
 
Riff 4  
 
D5-A5---- 
 
 
 
d-------------------------- 
a-------------------------- 
e--------12/5--------------- 
 
SILENCIO 
 
BASE DEL SOLO (Em-A5-G5) 
 
SOLO: 
e------------------------------------------------------- 
b--7-9-11--9-b(9-10-11)-11--------------------------------------------- 
g--------------------------9-b(9-10-11)-9-------11-9----------------- 
d------------------------------------------11-9------------ 
a------------------------------------------------------- 
e-------------------------------------------------------  
 
e-------------------------------------------------------------------------------------------------- 
b-b(11-12-13)-b(11-12-13)14-------------------------------------------------------------------12-14 
g-------------------------------12-14-12-b(12-13-14)-12-14-12--------------------------12-14-------- 
d-------------------------------------------------------------b(12-13-14)-b(12-13-14)---------------- 
a---------------------------------------------------------------------------------------------------- 
e---------------------------------------------------------------------------------------------------- 
 
Riff 1 
 
Du du du dududududu du du du du dudu 
 
CORO:Riff 1 
 
I WAS MADE FOR LOVING YOU BABY  
YOU WERE MADE FOR LOVING ME  
 AND I CAN'T GET ENOUGH FOR YOU BABY  
CAN YOU GET ENOUGH OF ME ?  
 
I WAS MADE 
YOU WERE MADE 
AND I CAN´T GET ENOUGH 
CAN YOU GET ENOUGH 
 
 
I WAS MADE FOR LOVING YOU BABY  
YOU WERE MADE FOR LOVING ME  
 AND I CAN'T GET ENOUGH FOR YOU BABY  
CAN YOU GET ENOUGH OF ME ?  
 
 
FIN 
 
 

	  

No existe una video leccione para esta canción

request
Aumentar uno tonoAumentar uno tono
Aumentar uno semi-tonoAumentar uno semi-tono
Disminuir uno semi-tonoDisminuir uno semi-tono
Disminuir uno tonoDisminuir uno semi-tono
LosAcordes
Buscar
auto avanzar rasgueos aumentar disminuir cambiar color esconder acordes gráficos
losacordes exhibir acordes losacordes youTube video losacordes ocultar tabs losacordes ir hacia arriba losacordes