Kiss

Início > Kiss > acordes

I was made for loving you baby Tablatura

Kiss

Dificultad:ExpertoExperto

paulantunes

tuner correct add songbook print version text version salvar en e-mail
acordesukuleletablaturabajobateríaarmónicaflautacavacopiano Guitar Pro
acordes

I was made for loving you baby

	  e|--------------------------------------------- 
B|--------------------------------------------- 
G|-14-12-14--14--12__--------------------------  
D|-14-14-14--14-------------------------------- 
A|--------------------------------------------- 
E|--------------------------------------------- 

e|---------------------------------| 
B|-----8---------------------------| 
G|-7-5-9---------------------------|   
D|-7-7-9---------------------------| X2 
A|---------------------------------| 
E|---------------------------------| 


e|-------------------------------------| 
B|-8-7__-------------------------------| 
G|-9-7__-------------------------------|   
D|-9-7__-------------------------------| 
A|-------------------------------------| 
E|-------------------------------------| 
	  

No existe una video leccione para esta canción

request
LosAcordes
Buscar
auto avanzar rasgueos aumentar disminuir cambiar color esconder acordes gráficos
losacordes exhibir acordes losacordes youTube video losacordes ocultar tabs losacordes ir hacia arriba losacordes