Kiss

Início > Kiss > acordes

I Was Made For Loving You Tablatura

Kiss

Dificultad:ExpertoExperto

snakebite

tuner correct add songbook print version text version salvar en e-mail
acordesukuleletablaturabajobateríaarmónicaflautacavacopiano Guitar Pro
acordes

I Was Made For Loving You

Áño: 1998 - Álbum: The Very Best of Kiss

	  Intro (bass only) 
 |4x                    | 
G|----------------------| 
D|*--------------------*| 
A|*--------------------*| 
E|--0-12-0-12-0-0-12-0--| 
 
Intro (with guitar) 
 |4x 
G|---------------------|--------------------|-----------------|----------- 
D|*--------------------|--------------------|---7---7-----7---|---7---7--- 
A|*--------------------|--------------------|-----------------|----------- 
E|--0-12-0-12-0-0-12-0-|-0-12-0-12-0-0-12-0-|-5---5---5-5---5-|-5---5---5- 
 
          | 
----------| 
---7---7-*| 
---------*| 
-5---5----| 
 
Verse 
 |2x 
G|---------------------|--------------------|-----------------|----------- 
D|*--------------------|--------------------|---5---5-----5---|---5---5--- 
A|*--------------------|--------------------|-----------------|----------- 
E|--0-12-0-12-0-0-12-0-|-0-12-0-12-0-0-12-0-|-3---3---3-3---3-|-3---3---3- 
                                                  ____ 
                                                 |1st 
---------|-------------------|-------------------|------------------|----- 
---5---5-|---9---9-----9---9-|---9---9-----9---9-|------------------|----- 
---------|-------------------|-------------------|------------------|----- 
-3---3---|-7---7---7-7---7---|-7---7---7-7---7---|-0-12-0-12-0-0-12-|0-12- 
                 ____ 
                |2nd                              | 
----------------|-------------------|-------------| 
---------------*|---7---7-----7---7-|-------------| 
---------------*|-------------------|---------7-5-| 
-0-12-0-0-12-0--|-5---5---5-5---5---|-5-5-5-5-----| 
 
Chorus 
 |2x 
G|---------------------|--------------------|-----------------|----------- 
D|*--------------------|--------------------|---7---7-----7---|---7---7--- 
A|*--------------------|--------------------|-----------------|----------- 
E|--0-12-0-12-0-0-12-0-|-0-12-0-12-0-0-12-0-|-5---5---5-5---5-|-5---5---5- 
 
          | 
----------| 
---7---7-*| 
---------*| 
-5---5----| 
 
Verse 
 |2x 
G|---------------------|--------------------|-----------------|----------- 
D|*--------------------|--------------------|---5---5-----5---|---5---5--- 
A|*--------------------|--------------------|-----------------|----------- 
E|--0-12-0-12-0-0-12-0-|-0-12-0-12-0-0-12-0-|-3---3---3-3---3-|-3---3---3- 
                                                  ____ 
                                                 |1st 
---------|-------------------|-------------------|------------------|----- 
---5---5-|---9---9-----9---9-|---9---9-----9---9-|------------------|----- 
---------|-------------------|-------------------|------------------|----- 
-3---3---|-7---7---7-7---7---|-7---7---7-7---7---|-0-12-0-12-0-0-12-|0-12- 
                 ____ 
                |2nd                              | 
----------------|-------------------|-------------| 
---------------*|---7---7-----7---7-|-------------| 
---------------*|-------------------|---------7-5-| 
-0-12-0-0-12-0--|-5---5---5-5---5---|-5-5-5-5-----| 
 
Chorus 
 |4x 
G|---------------------|--------------------|-----------------|----------- 
D|*--------------------|--------------------|---7---7-----7---|---7---7--- 
A|*--------------------|--------------------|-----------------|----------- 
E|--0-12-0-12-0-0-12-0-|-0-12-0-12-0-0-12-0-|-5---5---5-5---5-|-5---5---5- 
 
          | 
----------| 
---7---7-*| 
---------*| 
-5---5----| 
 
Bridge 
 |4x 
G|----5---5-----5---5-|---5---5-----5---5-|---7---7-----7---7-|---7---7-9- 
D|*-------------------|-------------------|-------------------|----------- 
A|*-3---3---3-3---3---|-3---3---3-3---3---|-5---5---5-5---5---|-5---5----- 
E|--------------------|-------------------|-------------------|----------- 
 
        | 
-9-7----|------------------|---------------------------------| 
-------*|------------------|---------------------------------| 
-------*|-5-5-5-5-5--------|---------------------------------| 
--------|--------------0-2-|-2-2-2-2-2-2-2-2-2-2-2-2-2-2-2/--| 
 
 |4x                    | 
G|----------------------| 
D|*--------------------*| 
A|*--------------------*| 
E|--0-12-0-12-0-0-12-0--| 
 
Guitar solo  
 |2x 
G|---------------------|--------------------|-----------------|----------- 
D|*--------------------|--------------------|---7---7-----7---|---7---7--- 
A|*--------------------|--------------------|-----------------|----------- 
E|--0-12-0-12-0-0-12-0-|-0-12-0-12-0-0-12-0-|-5---5---5-5---5-|-5---5---5- 
 
          | 
----------| 
---7---7-*| 
---------*| 
-5---5----| 
  
Chorus 
 |4x 
G|---------------------|--------------------|-----------------|----------- 
D|*--------------------|--------------------|---7---7-----7---|---7---7--- 
A|*--------------------|--------------------|-----------------|----------- 
E|--0-12-0-12-0-0-12-0-|-0-12-0-12-0-0-12-0-|-5---5---5-5---5-|-5---5---5- 
 
          | 
----------| 
---7---7-*| 
---------*| 
-5---5----| 
 
G|--------------------|--------------------|-----------------|----------- 
D|--------------------|--------------------|---7---7-----7---|---7---7--- 
A|--------------------|--------------------|-----------------|----------- 
E|-0-12-0-12-0-0-12---|-0-12-0-12-0-0-12---|-5---5---5-5-----|-5---5---5- 
 
-----| 
-7---| 
-----| 
-----| 
 
Outro 
|4x 
G|---------------------|--------------------|-----------------|----------- 
D|*--------------------|--------------------|---7---7-----7---|---7---7--- 
A|*--------------------|--------------------|-----------------|----------- 
E|--0-12-0-12-0-0-12-0-|-0-12-0-12-0-0-12-0-|-5---5---5-5---5-|-5---5---5- 
 
          | 
----------| 
---7---7-*| 
---------*| 
-5---5----| 

	  

No existe una video leccione para esta canción

request
LosAcordes
Buscar
auto avanzar rasgueos aumentar disminuir cambiar color esconder acordes gráficos
losacordes exhibir acordes losacordes youTube video losacordes ocultar tabs losacordes ir hacia arriba losacordes