Kiss

Início > Kiss > acordes

Hide Your Heart Tablatura

Kiss

Dificultad:Ningún gradoNingún grado

tarikike

tuner correct add songbook print version text version salvar en e-mail
acordesukuleletablaturabajobateríaarmónicaflautacavacopiano Guitar Pro
acordes

Hide Your Heart

	  

Rhythm Fig. 1a 
                                                   
E|--------------------------------------------------| 
B|--3----3----3--3----3------3----3--3----3---------| 
G|--4----4----4--4----4------4----4--4----4---------| 
D|--4----4----4--4----4------4----4--4----4---------| 
A|--2----2----2--2------------------------0---------| 
E|--------------------3------3----3--3--------------| 


                                              
E|--------------------------------------------------| 
B|--------2--------3------3-------------------------| 
G|--------2--------4------4-------------------------| 
D|--------2--------4------4-------------0-----------| 
A|--------0--------2------2-------0--2--------------| 
E|-----------------------------2--------------------| 



Rhythm Fig. 1b 
                                                
E|--------------------------------------------------| 
B|--3----3----3--3----3------3----3--3----3---------| 
G|--4----4----4--4----4------4----4--4----4---------| 
D|--4----4----4--4----4------4----4--4----4---------| 
A|--2----2----2--2------------------------0---------| 
E|--------------------3------3----3--3--------------| 


                                               
E|--------------------------------------------------| 
B|--------2--------3--------------------------------| 
G|--------2--------4--------------------------------| 
D|--------2--------4--------------------------------| 
A|--------0--------2---/5----5--4-------------------| 
E|---------------------------------7--5--0----------| 



Rhythm Fig. 2a 
                                                
E|--------------------------------------------------| 
B|--------------------------------------------------| 
G|--9----9----9--9----7------7----7--7----7---------| 
D|--7----7----7--7----5------5----5--5----5---------| 
A|--------------------------------------------------| 
E|--------------------------------------------------| 


                                               
E|--------------------------------------------------| 
B|--------------------------------------------------| 
G|------7----7--7----9------9----9--9----9----------| 
D|------5----5--5----7------7----7--7----7----------| 
A|--------------------------------------------------| 
E|--------------------------------------------------| 



Rhythm Fig. 2b 
                                                
E|--------------------------------------------------| 
B|--------------------------------------------------| 
G|--9----9----9--9----7------7----7--7----7---------| 
D|--7----7----7--7----5------5----5--5----5---------| 
A|--------------------------------------------------| 
E|--------------------------------------------------| 


                                             
E|--------------------------------------------------| 
B|--------------------------------------------------| 
G|--------7--------9------9----9--7----9------------| 
D|--------4--------7------7----7--7----7------------| 
A|--------------------------------------------------| 
E|--------------------------------------------------| 



Rhythm Fig. 2c 
                                                 
E|--------------------------------------------------| 
B|--------------------------------------------------| 
G|--9----9----9--9----7------7----7--7----x-x-------| 
D|--7----7----7--7----5------5----5--5----x-x-------| 
A|--------------------------------------------------| 
E|--------------------------------------------------| 


                                                
E|--------------------------------------------------| 
B|--------------------------------------------------| 
G|--7------7--7------7----7----7--7/-9--9-----------| 
D|--5------5--5------5----5----5--5/-7--7-----------| 
A|--------------------------------------------------| 
E|--------------------------------------------------| 



Rhythm Fig. 3 (clean electric, let ring) 
                                                    
E|-----2--------2------------2--------0-------------| 
B|--------3--------3------------3--------3----------| 
G|--4--------4----------4----------4----------4-----| 
D|--------------------------------------------------| 
A|--------------------------------------------------| 
E|--------------------------------------------------| 


                                                  
E|----2--------0------------2--------2--------------| 
B|-------3--------3------------3--------3-----------| 
G|----------4----------4----------4-----------------| 
D|--------------------------------------------------| 
A|--------------------------------------------------| 
E|--------------------------------------------------| 



Rhythm Fig. 4 
                                                
E|--------------------------------------------------| 
B|--------------------------------------------------| 
G|--------4/-7--4----4-----4/-7---------------------| 
D|--4-----------------------------------------------| 
A|-----0--2/-5--2----2--0--2/-5---------------------| 
E|--2-----------------------------------------------| 


                                            
E|--------------------------------------------------| 
B|--------------------------------------------------| 
G|----------4----4-----4/-7-------------------------| 
D|--------------------------------------------------| 
A|----------2----2--0--2/-5-------------------------| 
E|--------------------------------------------------| 



Rhythm Fig. 5 (P.M. throughout) 
                                               
E|--------------------------------------------------| 
B|--------------------------------------------------| 
G|--------9--------9--------------------------------| 
D|--7--7-----7--7-----7--7--------------------------| 
A|--------------------------------------------------| 
E|--------------------------------------------------| 




Rhythm Fig. 6 (P.M. throughout) 
                                                       
E|--------------------------------------------------| 
B|--------------------------------------------------| 
G|--------9--------9--------------7--------7--------| 
D|--7--7-----7--7-----7--7--5--5-----5--5-----5--5--| 
A|--------------------------------------------------| 
E|--------------------------------------------------| 


                                                       
E|--------------------------------------------------| 
B|--------------------------------------------------| 
G|--------7--------7--------------9--------9--------| 
D|--5--5-----5--5-----5--5--7--7-----7--7-----7--7--| 
A|--------------------------------------------------| 
E|--------------------------------------------------| 


                                                       
E|--------------------------------------------------| 
B|--------------------------------------------------| 
G|--------9--------9--------------7--------7--------| 
D|--7--7-----7--7-----7--7--5--5-----5--5-----5--5--| 
A|--------------------------------------------------| 
E|--------------------------------------------------| 


                                                       
E|--------------------------------------------------| 
B|--------------------------------------------------| 
G|--------7-----------7-----------9--------9--------| 
D|--5--5-----4--4--4-----5--7--7-----7--7-----7--7--| 
A|--------------------------------------------------| 
E|--------------------------------------------------| 




Rhythm Fig. 7 (let ring) 
                                                       
E|--------------------------------------------------| 
B|--------------------------------------------------| 
G|--------9--------9--------------7--------7--------| 
D|--7--7-----7--7-----7--7--5--5-----5--5-----5--5--| 
A|--------------------------------------------------| 
E|--------------------------------------------------| 


                                                       
E|--------------------------------------------------| 
B|--------------------------------------------------| 
G|--------7--------7--------------9--------9--------| 
D|--5--5-----5--5-----5--5--7--7-----7--7-----7--7--| 
A|--------------------------------------------------| 
E|--------------------------------------------------| 



E|--------------------------------------------------| 
B|--------------------------------------------------| 
G|--------9--------9--------------7--------7--------| 
D|--7--7-----7--7-----7--7--5--5-----5--5-----5--5--| 
A|--------------------------------------------------| 
E|--------------------------------------------------| 


                                        
E|--------------------------------------------------| 
B|--------------------------------------------------| 
G|--7-----------------------------------------------| 
D|--5-----------------------------------------------| 
A|--------------------------------------------------| 
E|--------------------------------------------------| 




Rhythm Fig. 8 

E|--------------------------------------------------| 
B|--------------------------------------------------| 
G|--9----------7----------7----------9--------------| 
D|--7----------5----------5----------7--------------| 
A|--------------------------------------------------| 
E|--------------------------------------------------| 



End 1 
                                         
E|--------------------------------------------------| 
B|--------------------------------------------------| 
G|--9----------7----------7---7------9--------------| 
D|--7----------5----------5---4------7--------------| 
A|--------------------------------------------------| 
E|--------------------------------------------------| 


                                          
End 2 
                                         
E|--------------------------------------------------| 
B|--------------------------------------------------| 
G|--9----------7----------7-------------------------| 
D|--7----------5----------5-------------------------| 
A|--------------------------------------------------| 
E|--------------------------------------------------| 


Riff 1 (semi-clean) 

E|--------------------------------------------------| 
B|--------------------------------------------------| 
G|--7--6--------------------------------------------| 
D|--------9--7--------------------------------------| 
A|--------------------------------------------------| 
E|--------------------------------------------------| 
    P.M. - - > 


Riff 2 

E|--------------------------------------------------| 
B|--------------------------------------------------| 
G|--5*(\)-------------------------------------------| 
D|--------------------------------------------------| 
A|--------------------------------------------------| 
E|--------------------------------------------------| 



Intro solo 

E|--10b------r10--7----7~---------------------------| 
B|------------------10------------------------------| 
G|------------------------------------9b--r9p7--9---| 
D|--------------------------------------------------| 
A|--------------------------------------------------| 
E|--------------------------------------------------| 



E|---------------10~---p7------7--------------------| 
B|------------------------10-----10p7---7h10p7------| 
G|--/11--9~---------------------------9--------9----| 
D|--------------------------------------------------| 
A|--------------------------------------------------| 
E|--------------------------------------------------| 



E|--------------------------------------------------| 
B|--------------------------------------------------| 
G|--9b-r9p7-----------------------------------------| 
D|----------9---------------------------------------| 
A|--------------------------------------------------| 
E|--------------------------------------------------| 



Interlude solo 

E|--------------------------------------------------| 
B|--------------------------------------------------| 
G|------7--9--9b~----9b--9--7h9~----------7--9--9b~-| 
D|--/9--------------------------------/9------------| 
A|--------------------------------------------------| 
E|--------------------------------------------------| 



E|--------------------------------------------------| 
B|--------------------------------------------------| 
G|----9--7--9p-7~-------------7--9--9b~-----9b--9---| 
D|----------------9~------/9------------------------| 
A|--------------------------------------------------| 
E|--------------------------------------------------| 



E|-----------------------10~----p7------7-----------| 
B|---------------------------------10-----10p7------| 
G|--7h9~----------7--9-------------------------9----| 
D|------------/9------------------------------------| 
A|--------------------------------------------------| 
E|--------------------------------------------------| 



E|--------------------------------------------------| 
B|--7h10p7------------------------------------------| 
G|---------9-9b-r9p7--------------------------------| 
D|-------------------9~-----------------------------| 
A|--------------------------------------------------| 
E|--------------------------------------------------| 




Solo 

E|-------7h10p7-----7-------------------------------| 
B|--7h10--------10-----10/12~-----------------------| 
G|--------------------------------------------------| 
D|--------------------------------------------------| 
A|--------------------------------------------------| 
E|--------------------------------------------------| 




E|--------------------------------------------------| 
B|--7h10-10p7---7-----------------------------------| 
G|------------9---9b-r9p7~--------------------------| 
D|--------------------------------------------------| 
A|--------------------------------------------------| 
E|--------------------------------------------------| 




E|--------------------------------------------------| 
B|--17b------r17p15-17--17b----15--------15b--------| 
G|--------------------------------14~---------------| 
D|--------------------------------------------------| 
A|--------------------------------------------------| 
E|--------------------------------------------------| 




E|--14--14-17-14------------------------------------| 
B|--17b-----------17b-----r17p15-17~----------------| 
G|--------------------------------------------------| 
D|--------------------------------------------------| 
A|--------------------------------------------------| 
E|--------------------------------------------------| 
   < - - 3x - - > 



Outro solo 

E|-------7h10p7----7~---10b------12b----r12p10------| 
B|--7h10--------10-----------------------------12~--| 
G|--------------------------------------------------| 
D|--------------------------------------------------| 
A|--------------------------------------------------| 
E|--------------------------------------------------| 



E|--------------------------------------------------| 
B|--15p12----12-15p12----12-15b^^---r15p12----12~---| 
G|--------14----------14-------------------14-------| 
D|--------------------------------------------------| 
A|--------------------------------------------------| 
E|--------------------------------------------------| 



E|----------17----------17b~------------------------| 
B|--17b----------r17-15-----------------------------| 
G|--------------------------------------------------| 
D|--------------------------------------------------| 
A|--------------------------------------------------| 
E|--------------------------------------------------| 
 
	  

No existe una video leccione para esta canción

request
LosAcordes
Buscar
auto avanzar rasgueos aumentar disminuir cambiar color esconder acordes gráficos
losacordes exhibir acordes losacordes youTube video losacordes ocultar tabs losacordes ir hacia arriba losacordes