Kiss

Início > Kiss > acordes

Heavens on fire Tablatura

Kiss

Dificultad:AdelantadoAdelantado

tuner correct add songbook print version text version salvar en e-mail
acordesukuleletablaturabajobateríaarmónicaflautacavacopiano Guitar Pro
acordes

Heavens on fire

Áño: 1984 - Álbum: Alive! Box Set

	   
Standard (e-B-G-D-A-E)   

 
Notation: / or \: slides 
                                p:pull-offs  
Introdução: 
 
Ooh! Ooh! Ooh! Ooh! Ooh! Ooh! Ooh! Ooh! Yeah!!!  
 
e|----------------------------------------------------| 
B|----------------------------------------------------| 
G|----------------------------------------------------| 
D|--------2----------2-----2---------2-----2----------| 
A|--------0----------0-----0---------0-----0----------| 
E|----------------------------------------------------| 
 
 
1ºVerso: 
e|----------------------------------------------------| 
B|----------------------------------------------------| 
G|----------------------------------------------------| 
D|---2--2-----2--3------2--4------6--2----------------| 
A|---0--0-----0--1------0--2------4--0----------------| 
E|----------------------------------------------------| 
 
e|----------------------------------------------------| 
B|----------------------------------------------------| 
G|----------------------------------------------------| 
D|---2--2-----2--3-----2---4----6--2------------------| 
A|---0--0-----0--1-----0---2----4--0------------------| 
E|----------------------------------------------------| 
 
e|----------------------------------------------------| 
B|----------------------------------------------------| 
G|----------------------------------------------------| 
D|--2-2-2-2----5-5-5-5-5-5-5-5------------------------| 
A|--0-0-0-0----3-3-3-3-3-3-3-3------------------------| 
E|----------------------------------------------------| 
 
 
Riff: 
e|----------------------------------------------------| 
B|----------------------------------------------------| 
G|----------------------------------------------------| 
D|----------------------------------------------------| 
A|--------3/2/4/3----3/2/3/4--------------------------| 
E|--------3/2/3/4----3/2/3/4--------------------------| 
 
 
 
 
 
 
 
 
2ºVerso: 
e|----------------------------------------------------| 
B|----------------------------------------------------| 
G|----------------------------------------------------| 
D|-2-2-2-2--5-5-5-5-5-5-5-5--7-7-7-7-7-7-7-7--9-9-9-9-| 
A|-0-0-0-0--3-3-3-3-3-3-3-3--5-5-5-5-5-5-5-5--7-7-7-7-| 
E|----------------------------------------------------| 
 
 
 
Riff 2: 
e|----------------------------------------------------| 
B|----------------------------------------------------| 
G|----------------------------------------------------| 
D|----------------------------------------------------| 
A|---3/2/4/3----3/2/3/4----3/2/3/4---3/2/3/4----------| 
E|---3/2/4/3----3/2/3/4----3/2/3/4---3/2/3/4----------| 
 
Repita esse riff                                                                                                 
e|----------------------------------------------------| 
B|----------------------------------------------------| 
G|----------------------------------------------------| 
D|----------------------------------------------------| 
A|---3/2/4/3----3/2/3/4----3/2/3/4---3/2/3/4----------| 
E|---3/2/4/3----3/2/3/4----3/2/3/4---3/2/3/4----------| 
 
 
3ºVerso: 
e|----------------------------------------------------| 
B|----------------------------------------------------| 
G|----------------------------------------------------| 
D|---2--2------2--3------2--4------6?-2---------------| 
A|---0--0------0--1------0--2------4--0---------------| 
E|----------------------------------------------------| 
 
e|----------------------------------------------------| 
B|----------------------------------------------------| 
G|----------------------------------------------------| 
D|---2--2-----2--3------2--4------6?-2----------------|     
A|---0--0-----0--1------0--2------4--0----------------| 
E|----------------------------------------------------| 
 
e|----------------------------------------------------| 
B|----------------------------------------------------| 
G|----------------------------------------------------| 
D|---2-2-2-2---5-5-5-5-5-5-5-5------------------------| 
A|---0-0-0-0---3-3-3-3-3-3-3-3------------------------| 
E|----------------------------------------------------| 
 
 
Riff 2: 
E|----------------------------------------------------| 
B|----------------------------------------------------| 
G|----------------------------------------------------| 
D|----------------------------------------------------| 
A|---3/2/4/3----3/2/3/4-------------------------------| 
E|---3/2/4/3----3/2/3/4-------------------------------| 
 
 
 
 
 
 
 
 
4ºVerso: 
E|----------------------------------------------------| 
B|----------------------------------------------------| 
G|----------------------------------------------------| 
D|-2-2-2-2--5-5-5-5-5-5-5-5--7-7-7-7-7-7-7-7--9-9-9-9-| 
A|-0-0-0-0--3-3-3-3-3-3-3-3--5-5-5-5-5-5-5-5--7-7-7-7-| 
E|----------------------------------------------------| 
 
 
Riff: 
e|----------------------------------------------------| 
B|----------------------------------------------------| 
G|----------------------------------------------------| 
D|----------------------------------------------------| 
A|---3/2/4/3----3/2/3/4----3/2/3/4---3/2/3/4----------| 
E|---3/2/4/3----3/4/3/2----3/2/3/4---3/2/3/4----------| 
 
Repita esse riff: 
e|----------------------------------------------------| 
B|----------------------------------------------------| 
G|----------------------------------------------------| 
D|---3/2/4/3----3/2/3/4----3/2/3/4---3/2/3/4----------| 
A|---3/2/4/3----3/2/3/4----3/2/3/4---3/2/3/4----------| 
E|----------------------------------------------------| 
 
 
Nessa parte Paul Stanley Canta: Oooooh!Ooh! Ooh! Heavens on fire!!!!! 
e|----------------------------------------------------| 
B|----------------------------------------------------| 
G|----------------------------------------------------| 
D|-2-4------------------------------------------------| 
A|-0-2--3p-2--3p-2--3p-2--3p-2--3p-2--3p-2--3p-2--3p-2| 
E|----------------------------------------------------| 
 
Oooooh Heavens on fire!!!!! 
e|----------------------------------------------------| 
B|----------------------------------------------------| 
G|----------------------------------------------------| 
D|-2-4------------------------------------------------| 
A|-0-2--3p-2--3p-2--3p-2--3p-2--3p-2--3p-2--3p-2--3p-2| 
E|----------------------------------------------------| 
 
Oooooh Heavens on fire!!!!! 
e|----------------------------------------------------| 
B|----------------------------------------------------| 
G|----------------------------------------------------| 
D|----2---4-------------------------------------------| 
A|----0---2-------------------------------------------| 
E|----------------------------------------------------| 
 
Na terceira vez que é cantado ?Ooooh Heavens on fire? não é feito  
Aquele riff dos pull-offs e sim o solo. 
 
 
 
 
 
((Solo)) 
e|--10---------------12-10---10-----------------12----| 
B|-----12--------13-----12------12-----------13-------| 
G|--------12?14-------12-12------12---14--------------| 
D|----------------------------------------------------| 
A|--------------------------------------------------0-| 
E|--------------------------------------------------2-| 
 
e|--10---------------12-10---10-----------------12----| 
B|-----12--------13-----12------12-----------13-------| 
G|--------12?14-------12-12------12---14--------------| 
D|----------------------------------------------------| 
A|--------------------------------------------------0-| 
E|--------------------------------------------------2-| 
 
e|--10---------------12-10---10-----------------12----| 
B|-----12--------13-----12------12-----------13-------| 
G|--------12?14-------12-12------12---14--------------| 
D|----------------------------------------------------| 
A|--------------------------------------------------0-| 
E|--------------------------------------------------2-| 
 
e|--10---------------12-10---10-----------------12----| 
B|-----12--------13-----12------12-----------13-------| 
G|--------12?14-------12-12------12---14--------------| 
D|----------------------------------------------------| 
A|--------------------------------------------------0-| 
E|--------------------------------------------------2-| 
 
 
5ºVerso: 
e|----------------------------------------------------| 
B|----------------------------------------------------| 
G|----------------------------------------------------| 
D|---2-2-2-2---5-5-5-5-5-5-5-5------------------------| 
A|---0-0-0-0---3-3-3-3-3-3-3-3------------------------| 
E|----------------------------------------------------| 
 
 
Nessa parte todos os instrumentos param e Paul Stanley fica cantando: 
Há! Há! Há! Há!!! 
 
6ºVerso: 
E|----------------------------------------------------| 
B|----------------------------------------------------| 
G|----------------------------------------------------| 
D|-2-2-2-2--5-5-5-5-5-5-5-5--7-7-7-7-7-7-7-7--9-9-9-9-| 
A|-0-0-0-0--3-3-3-3-3-3-3-3--5-5-5-5-5-5-5-5--7-7-7-7-| 
E|----------------------------------------------------| 
Agora para terminar faça quatro vezes o riff 2 e FIM!!!!! 
 
 
e|----------------------------------------------------| 
B|----------------------------------------------------| 
G|----------------------------------------------------| 
D|----------------------------------------------------| 
A|---3/2/4/3----3/2/3/4----3/2/3/4---3/2/3/4----------| 
E|---3/2/4/3----3/2/3/4----3/2/3/4---3/2/3/4----------| 
 
e|----------------------------------------------------| 
B|----------------------------------------------------| 
G|----------------------------------------------------| 
D|----------------------------------------------------| 
A|---3/2/4/3----3/2/3/4----3/2/3/4---3/2/3/4----------| 
E|---3/2/4/3----3/2/3/4----3/2/3/4---3/2/3/4----------| 
 
e|----------------------------------------------------| 
B|----------------------------------------------------| 
G|----------------------------------------------------| 
D|----------------------------------------------------| 
A|---3/2/4/3----3/2/3/4----3/2/3/4---3/2/3/4----------| 
E|---3/2/4/3----3/2/3/4----3/2/3/4---3/2/3/4----------| 
 
e|----------------------------------------------------| 
B|----------------------------------------------------| 
G|----------------------------------------------------| 
D|----------------------------------------------------| 
A|---3/2/4/3----3/2/3/4----3/2/3/4---3/2/3/4----------| 
E|---3/2/4/3----3/2/3/4----3/2/3/4---3/2/3/4----------| 
 
Isso é tudo é só seguir o que está transcrito!!! 
 
?Power-chords? usados na música: 
 
 A: x-0-2-x-x-x 
Bb: x-1-3-x-x-x 
 B: x-2-4-x-x-x 
C#: x-4-6-x-x-x 
 E: 0-2-x-x-x-x 
 
 
|---------------------HEAVEN`S-ON-FIRE-------------------------| 
                            (KISS) 
 
 
I look at you and my blood boils hot, I feel my temperature rise.  
I want it all give me what you got it is hunger in your eyes. 
I?m getting closer baby hear me breath. 
 
You know the way to give me what I need, just let me love you 
and you never leave. 
 
Feel my heat taking you higher, burn with me heavens on fire,  
paint the sky with desire, angel fly, heavens on fire. 
 
I got a fever raging in my heart you make me shiver and shake, 
baby don?t stop take it to the top, eat it like a pice of cake, 
you coming closer I can hear you breath, you drive me crazy when you 
start to tease you can bring the devil to his knees. 
 
Feel my heat taking you higher, burn with me heavens on fire,  
paint the sky with desire, angel fly, heavens on fire. 
 
I?m coming closer baby hear me breath, you know the way to give 
me what I need, just let me love you and you never leave. 
 
Feel my heat taking you higher, burn with me heavens on fire,  
paint the sky with desire, angel fly, heavens on fire. 
 
 
Transcrita por: Ramon de C. Domingos (Guitarman) 
Um abraço para o melhor batera do mundo:?TOMASÂO? 
************GUNS
	  

No existe una video leccione para esta canción

request
LosAcordes
Buscar
auto avanzar rasgueos aumentar disminuir cambiar color esconder acordes gráficos
losacordes exhibir acordes losacordes youTube video losacordes ocultar tabs losacordes ir hacia arriba losacordes