Kiss

Início > Kiss > acordes

Detroit Rock City (ver. 3) Tablatura

Kiss

Dificultad:Ningún gradoNingún grado

ironmejiab

tuner correct add songbook print version text version salvar en e-mail
acordesukuleletablaturabajobateríaarmónicaflautacavacopiano Guitar Pro
acordes

Detroit Rock City (ver. 3)

	   
 
 
 
 
Intro: Guitarra 1 
 
D------| 
A------|x 14 veces 
E-3--1-| 
 
Guitarra 2 y 3 
 
D------| 
A-3--1-|x 7 (Entra en la 7º vez de la guitarra 1) 
E------| 
      Em   G#5       G#5      A#5 
 D|---2----6-------|--x--------8-------| 
 A|---2----6-------|--x--------8-------| 
 E|---0----4-------|--x--------6-------| 
 
(Lo anterior se repite 2 veces pero a la 2º vez entran las guitarras juntas cada una en lo suyo.) 
 
VERSO 1 
   C5      G#5    F5    A#5            C5- G#5- F5- A#5 
G|--5------------------------------|---x-------------------------------| 
D|--5------6-------3-----8---------|---x----x----x---x-----------------| (En ese A#5 una de las guitarras raspa la 6º cuerda) 
A|--3------6-------3-----8---------|---x----x----x---x-----------------| 
E|---------4-------1-----6---------|--------x----x---x-----------------| 
 
 
CORO 
    Em   G#5     G#5      A#5   
D|--2-----6----|-x---------8----------| 
A|--2-----6----|-x---------8----------| 
E|--0-----4----|-x---------6----------| 
 
D|---------------|---------1---------1-------| 
A|3--3--1---1--3-|-3--1--3---3--1-------3----| 
E|--------4------|-----------------4---------| 
 
     Em    G#5       G#5    A#5 
 D|--2------6----|---x-------8--------| 
 A|--2------6----|---x-------8--------| 
 E|--0------4----|---x-------6--------| 
 
 
VERSO 2 
 
    C5     G#5    F5    A#5           C5- G#5- F5- A#5 
G|--5------------------------------|---x-------------------------------| 
D|--5------6-------3-----8---------|---x----x----x---x-----------------| (Igual...vuelve y raspa la cuerda) 
A|--3------6-------3-----8---------|---x----x----x---x-----------------| 
E|---------4-------1-----6---------|--------x----x---x-----------------| 
 
CORO 
    Em   G#5      G#5        A#5 
D|--2-----6----|--x--------8---------| 
A|--2-----6----|--x--------8---------| 
E|--0-----4----|--x--------6---------| 
                   Se repite x2 
D|---------------|:---------1--------1---:|----------------| 
A|-3-3--1---1--3-|:-3--1--3---3--1-----3-:|-5-5--3----3--5-| 
E|--------4------|:----------------4-----:|---------6------| 
 
     Se repite x2 
D|:----------3--------3---:| 
A|:--5--3--5---5--3-----5-:| 
E|:-----------------6-----:| 
 
 
   Em    G#5       G#5      A#5 
D|-2------6-----|--x--------8--------| 
A|-2------6-----|--x--------8--------| 
E--0------4-----|--x--------6--------| 
 
VERSO 3 
 
    C5     G#5    F5    A#5            C5- G#5- F5- A#5 
G|--5------------------------------|---x-------------------------------| 
D|--5------6-------3-----8---------|---x----x----x---x-----------------|  
A|--3------6-------3-----8---------|---x----x----x---x-----------------| 
E|---------4-------1-----6---------|--------x----x---x-----------------| 
 
CORO 
    Em   G#5      G#5    A#5 
D|--2-----6----|--x--------8---------| 
A|--2-----6----|--x--------8---------| 
E|--0-----4----|--x--------6---------| 
 
SOLO:x2 
   FIGURA 1        FIGURA 2              FIGURA 3           
E|-------------|---------------------|------------------------:|OJO, SE HACE EL SOLO HASTA 
B|-------------|---------------------|------------------------:|LA FIGURA 4, Y DESPUES SE VULVE 
G|-----3--7--5-|-8--7--5--8--7--5----|----7--8--7-------------:|A HACER PERO HASTA LA FIGURA 3. 
D|---5---------|-------------------8-|-8-----------8--6--5--6-:|DESPUES SIGUE LA 5 ETC. 
A|-------------|---------------------|------------------------:| 
E|-------------|---------------------|------------------------:| 
             
    FIGURA 4           FIGURA 5       FIGURA 6 
E|--------------------|-----------|-------------------| 
B|--------------------|-----------|-------------------| 
G|-5-------5----------|----7--5---|--------------7--8-| 
D|---8--6-----8--6--5-|-5---------|-5-5-5-...ETC------| 
A|--------------------|-----------|-------------------| 
E|--------------------|-----------|-------------------| 
(El solo termina con la figura 2 y 3) 
En la 2º vuelta entra una guitarra con el solo despues del 
traste 12, y en una parte del solo otra guitarra se separa 
haciendo el intermedio del coro.Es decir, el siguiente: 
 
D|---------------|---------1---------1-------| 
A|3--3--1---1--3-|-3--1--3---3--1-------3----| 
E|--------4------|-----------------4---------| 
 
ULTIMO VERSO 
ULTIMO CORO Y EN LOS ESPACIOS DEL CORO UNA  
GUITARRA RESPONDE CON LAS FIGURAS 2 Y 3 DEL SOLO. 
 
FIN. 
 

	  

No existe una video leccione para esta canción

request
Aumentar uno tonoAumentar uno tono
Aumentar uno semi-tonoAumentar uno semi-tono
Disminuir uno semi-tonoDisminuir uno semi-tono
Disminuir uno tonoDisminuir uno semi-tono
LosAcordes
Buscar
auto avanzar rasgueos aumentar disminuir cambiar color esconder acordes gráficos
losacordes exhibir acordes losacordes youTube video losacordes ocultar tabs losacordes ir hacia arriba losacordes