Kiss

Início > Kiss > acordes

Detroit Rock City Solo Tablatura

Kiss

Dificultad:PrincipiantePrincipiante

Erkolin

tuner correct add songbook print version text version salvar en e-mail
acordesukuleletablaturabajobateríaarmónicaflautacavacopiano Guitar Pro
acordes

Detroit Rock City Solo

	  
|---------------------------------------------------|  
|----------------------------------------------4----|  
|-----------------------------------------4---------|  
|------------------------------------6--------------|  
|---------------------------------------------------|  
|---------------------------------------------------|  
  
  
  
                                                       
|---------------------------------------------------|  
|---------------------------------------------------|  
|--6------------------9\---8----6----9\---8----6\---|  
|---------------------------------------------------|  
|---------------------------------------------------|  
|---------------------------------------------------|  
  
  
     
                                                     
|---------------------------------------------------|  
|--------------------4/---5\---4--------------------|  
|--4--------------4-----------------4\---2----1/----|  
|---------------------------------------------------|  
|---------------------------------------------------|  
|---------------------------------------------------|  
  
  
     
                                                   
|---------------------------------------------------|  
|---------------------------------------------------|  
|--2------------------6\---4----2----6\---4----2\---|  
|---------------------------------------------------|  
|---------------------------------------------------|  
|---------------------------------------------------|  
  
  
  
                                                
|---------------------------------------------------|  
|----------------------------------------------4----|  
|--1--------------------------------------4---------|  
|------------------------------------6--------------|  
|---------------------------------------------------|  
|---------------------------------------------------|  
  |               PLAYED TOGETHER                     |     
|---------------------------------------------------|  
|----------------------------------------------7----|  
|-----------------------------------------8---------|  
|------------------------------------9--------------|  
|---------------------------------------------------|  
|---------------------------------------------------|  
  
  
                                                       
                                                       
|---------------------------------------------------|  
|---------------------------------------------------|  
|--6------------------9\---8----6----9\---8----6\---|  
|---------------------------------------------------|  
|---------------------------------------------------|  
|---------------------------------------------------|  
  |                PLAYED TOGETHER                    |  
|---------------------------------------------------|  
|---------------------9\---7---------9\---7---------|  
|--9----------------------------9--------------9\---|  
|---------------------------------------------------|  
|---------------------------------------------------|  
|---------------------------------------------------|  
  
  
  
                                                        
                                                        
|---------------------------------------------------|  
|--------------------4/---5\---4--------------------|  
|--4--------------4-----------------4\---2----1/----|  
|---------------------------------------------------|  
|---------------------------------------------------|  
|---------------------------------------------------|  
  |                PLAYED TOGETHER                    |  
|---------------------------------------------------|  
|--------------------7/---9\---7--------------------|  
|--8--------------8-----------------8\---6----5/----|  
|---------------------------------------------------|  
|---------------------------------------------------|  
|---------------------------------------------------|  
  
  
     
                                                           
                                                              
|---------------------------------------------------|  
|---------------------------------------------------|  
|--2------------------1--------5--------------------|  
|---------------------------------------------------|  
|---------------------------------------------------|  
|---------------------------------------------------|  
  |                PLAYED TOGETHER                    |  
|---------------------------------------------------|  
|---------------------------------------------------|  
|--6------------------5--------8--------------------|  
|---------------------------------------------------|  
|---------------------------------------------------|  
|---------------------------------------------------|  
  
  
  
  
                                                     
                                                     
|---------------------------------------------------|  
|---------------------------------------------------|  
|--6------------------6--6--6--6--6--6--6-----------|  
|----------------------------------------------6----|  
|---------------------------------------------------|  
|---------------------------------------------------|  
  |                PLAYED TOGETHER                    |    
|---------------------------------------------------|  
|---------------------------------------------------|  
|--6------------------6--6--6--6--6--6--6------8----|  
|---------------------------------------------------|  
|---------------------------------------------------|  
|---------------------------------------------------|  
  
  
      
                                                   
                                                       
|---------------------------------------------------|  
|---------------------------------------------------|  
|--6------------------9\---8----6----9\---8----6\---|  
|---------------------------------------------------|  
|---------------------------------------------------|  
|---------------------------------------------------|  
  |                 PLAYED TOGETHER                   |    
|---------------------------------------------------|  
|---------------------9\---7---------9\---7---------|  
|--9----------------------------9--------------9\---|  
|---------------------------------------------------|  
|---------------------------------------------------|  
|---------------------------------------------------|  
  
  
  
  
                                                      
|---------------------------------------------------|  
|--------------------4/---5\---4--------------------|  
|--4--------------4-----------------6p---4----8\----|  
|---------------------------------------------------|  
|---------------------------------------------------|  
|---------------------------------------------------|  
  |                PLAYED TOGETHER                    |    
|---------------------------------------------------|  
|--------------------7/---9\---7--------------------|  
|--8--------------8-----------------9p---8----11\---|  
|---------------------------------------------------|  
|---------------------------------------------------|  
|---------------------------------------------------|  
  
  
  
  
                                              
                                              
|---------------------------------------------------|  
|---------------------------------------------------|  
|--6------------------9----8----6----4--6-----------|  
|---------------------------------------------------|  
|---------------------------------------------------|  
|---------------------------------------------------|  
  |                PLAYED TOGETHER                    |  
|---------------------------------------------------|  
|---------------------9----7------------------------|  
|--9----------------------------9----8--9-----------|  
|---------------------------------------------------|  
|---------------------------------------------------|  
|---------------------------------------------------|  
  
  
  
                                                  
                                                  
|---------------------------------------------------|  
|-------------------9----7h-9p-7--------------------|  
|----------------6----------------9----8\-6---------|  
|---------------------------------------------------|  
|---------------------------------------------------|  
|---------------------------------------------------|  
  |                PLAYED TOGETHER                    |  
|-------------------9----7h-9p-7--------------------|  
|----------------9----------------9----7------------|  
|-----------------------------------------9---------|  
|---------------------------------------------------|  
|---------------------------------------------------|  
|---------------------------------------------------|  
  
  
  
  
                                                     
|---------------------------------------------------|  
|---------------------------------------------------|  
|----------------6--9\---8----6----9\---8----6\-----|  
|---------------------------------------------------|  
|---------------------------------------------------|  
|---------------------------------------------------|  
  |                 PLAYED TOGETHGER                  |  
|---------------------------------------------------|  
|-------------------9\---7---------9\---7-----------|  
|----------------9------------9--------------9\-----|  
|---------------------------------------------------|  
|---------------------------------------------------|  
|---------------------------------------------------|  
  
  
  
  
                                                        
                                                        
|---------------------------------------------------|  
|--------------------4/---5\---4--------------------|  
|--4--------------4-----------------6p---4----8-----|  
|---------------------------------------------------|  
|---------------------------------------------------|  
|---------------------------------------------------|  
  |                PLAYED  TOGETHER                   |  
|----------------------------------------------------|  
|--------------------7/---9\---7--------------------|  
|--8--------------8-----------------9p---8----4/----|  
|---------------------------------------------------|  
|---------------------------------------------------|  
|---------------------------------------------------|  
                                          
                                                            
|---------------------------------------------------|  
|---------------------------------------------------|  
|---------------------------------------------------|  
|--6------------------------------------------------|  
|---------------------------------------------------|  
|---------------------------------------------------|  
  |              PLAYED TOGETHGER                                         
|---------------------------------------------------|  
|---------------------------------------------------|  
|--6------------------------------------------------|  
|---------------------------------------------------|  
|---------------------------------------------------|  
|---------------------------------------------------|  
  


	  

No existe una video leccione para esta canción

request
LosAcordes
Buscar
auto avanzar rasgueos aumentar disminuir cambiar color esconder acordes gráficos
losacordes exhibir acordes losacordes youTube video losacordes ocultar tabs losacordes ir hacia arriba losacordes