Kings Of Convenience

Início > Kings Of C... > acordes

Scars On Land Tablatura

Kings Of Convenience

Dificultad:Ningún gradoNingún grado

LINEKERS

tuner correct add songbook print version text version salvar en e-mail
acordesukuleletablaturabajobateríaarmónicaflautacavacopiano Guitar Pro
acordes

Scars On Land

	  

Tuning:Standard 
Riff 1               Also play this in places Just double up with the rhythm 
e|---------------4--|--------------------5----------------------------| 
B|-------7----------|---------7---------------------------------------| 
G|---4-6-----4-6----|----4-6-6------4-6-6-----------------------------| 
D|-6-------6--------|-6-6--------6-6----------------------------------| 
A|------------------|-------------------------------------------------| 
E|------------------|-------------------------------------------------| 

Riff2 
Played continually throughout accenting the beat and continuing 
to pick with the strings muted. Listen to the song... 
PALM MUTE 
e|--------------------------------------------------------------------| 
B|---------(4)---------(6)--------------------------------------------| 
G|---(4)-4-------(6)-6------------------------------------------------| 
D|-4-----4-----6-----6------------------------------------------------| 
A|-4-----2-----6-----4------------------------------------------------| 
E|-2-----------4------------------------------------------------------| 

Solo 
x2 
e|-1616----1616----1616----1616----1616----1616----1616----1616--------| 
B|-----1414----1414----1414----1414----1717----1616----1414----1414----| 
G|---------------------------------------------------------------------| 
D|---------------------------------------------------------------------| 
A|---------------------------------------------------------------------| 
E|---------------------------------------------------------------------| 

e|-1616----1616----1616----1616--------------------------------------------| 
B|-----1414----1414----1414----1414--...-----------------------------------| 
G|-------------------------------------------------------------------------| 
D|-------------------------------------------------------------------------| 
A|-------------------------------------------------------------------------| 
E|-------------------------------------------------------------------------| 

Intro:Riff1x2 
|Riff1---- 
|Riff2 enters here and continues for the whole song 
We take what's dead 
And breathe life in 
And move like knives 
Through scars on land 

Still untouched 
No stain of hands 
Caramelized 
In a tilted light 

No chain stays unbroken 
All aims get forgotten 

|Solo here 

The weight of lead 
On floors of sand 
The idea reduced again 
To outcome 

No chain stays unbroken 
All aims get forgotten 

Very very easy, just listen to the song to figure out where to play what. 
I haven't finished the solo yet, if someone wants to comment the rest of it, go for it :) 
	  

No existe una video leccione para esta canción

request
LosAcordes
Buscar
auto avanzar rasgueos aumentar disminuir cambiar color esconder acordes gráficos
losacordes exhibir acordes losacordes youTube video losacordes ocultar tabs losacordes ir hacia arriba losacordes