Kimberly Anne

Início > Kimberly A... > acordes

Hard As Hello Tablatura

Kimberly Anne

Dificultad:Ningún gradoNingún grado

joaoewerton

tuner correct add songbook print version text version salvar en e-mail
acordesukuleletablaturabajobateríaarmónicaflautacavacopiano Guitar Pro
acordes

Hard As Hello

	  


Intro 

e|--------------| 
B|--------------| 
G|--------------|      x2 
D|--5--5--5--5--| 
A|--------------| 
E|-3--3--3--3---| 



Verse 

e|--------------|--------------|--------------|--------------| 
B|--------------|--------------|--------------|--------------| 
G|--------------|--------------|--------------|--------------| 
D|--5--5--5--5--|--5--5--5--5--|--5--5--5--5--|--5--5--5--5--| 
A|--------------|--------------|--------------|--------------| 
E|-3--3--3--3---|-3--3--3--3---|-0--0--0--0---|-0--0--0--0---| 
                                                                        x2 
e|--------------|--------------|--------------|--------------| 
B|--------------|--------------|--------------|--------------| 
G|--------------|--------------|--------------|--------------| 
D|--5--5--5--5--|--5--5--5--5--|--5--5--5--5--|--5--5--5--5--| 
A|--------------|--------------|--------------|--------------| 
E|-2--2--2--2---|-2--2--2--2---|-3--3--3--3---|-3--3--3--3---| 



Pre-Chorus 

e|--------------|--------------|    |--------------|--------------| 
B|--------------|--------------|    |--------------|--------------| 
G|--------------|--------------|    |--------------|--------------| 
D|-5--5--5--5---|-5--5--5--5---| x2 |-5--5--5--5---|-5--5--5--5---| x2 
A|--------------|--------------|    |--------------|--------------| 
E|-3--3--3--3---|-3--3--3--3---|    |-0--0--0--0---|-0--0--0--0---| 
                                                                           x2 
e|--------------|--------------|    |--------------|--------------| 
B|--------------|--------------|    |--------------|--------------| 
G|--------------|--------------|    |--------------|--------------| 
D|-9--9--9--9---|-9--9--9--9---| x2 |-9--9--9--9---|-9--9--9--9---| x2 
A|--------------|--------------|    |--------------|--------------| 
E|-8--8--8--8---|-8--8--8--8---|    |-0--0--0--0---|-0--0--0--0---| 




Chorus (listen to song for strum pattern) 


  Feet don't fail me now, I'm feeling stronger than this 
e|----------| 
B|----------| 
G|----------| 
D|----5-----| 
A|----5-----| 
E|----3-----| 

  I'm as hard as... 
e|----------| 
B|----------| 
G|----------|                                 x2 
D|----9-----| 
A|----9-----| 
E|----8-----| 

  Hell... 
e|----------| 
B|----------| 
G|----------| 
D|----9-----| 
A|----9-----| 
E|----0-----| 



Verse         x2 



Pre-Chorus    x2 



Chorus        x2 




  Cos I'm over and done with it... 
e|----------| 
B|----------| 
G|----------| 
D|----5-----| 
A|----5-----| 
E|----3-----| 

  The sadistic fun of it... 
e|----------| 
B|----------| 
G|----------| 
D|----5-----| 
A|----5-----| 
E|----0-----| 



 Chorus    x1 



Bridge 

e|----------|----------| 
B|----------|----------| 
G|----------|----------| 
D|----7-----|----9-----| 
A|----7-----|----9-----| 
E|----5-----|----0-----| 



Chorus    x2 


 
	  

No existe una video leccione para esta canción

request
LosAcordes
Buscar
auto avanzar rasgueos aumentar disminuir cambiar color esconder acordes gráficos
losacordes exhibir acordes losacordes youTube video losacordes ocultar tabs losacordes ir hacia arriba losacordes