Kid Cudi

Início > Kid Cudi > acordes

Man In The Night Tablatura

Kid Cudi

Dificultad:Ningún gradoNingún grado

sabrjoao

tuner correct add songbook print version text version salvar en e-mail
acordesukuleletablaturabajobateríaarmónicaflautacavacopiano Guitar Pro
acordes

Man In The Night

	  
Tuning: 

e|---------------------------------------------------------------------------| 
B|---------------------------------------------------------------------------| 
G|---------------------------------------------------------------------------| 
D|---------------------------------------------------------------------------| 
A|-4-4-4-4-/-14-14-14-14-\-4-4-4-4-/-14-14-14-14-----------------------------| 
E|-2-2-2-2-/-12-12-12-12-\-2-2-2-2-/-12-12-12-12-----------------------------| 

Before the refrain : 

e|---------------------------------------------------------------------------| 
B|---------------------------------------------------------------------------| 
G|---------------------------------------------------------------------------| 
D|---------------------------------------------------------------------------| 
A|-4-4--5-5------------------------------------------------------------------| 
E|-2-2--3-3------------------------------------------------------------------| 


************************************ 

/   slide up 
\   slide down 
	  

No existe una video leccione para esta canción

request
LosAcordes
Buscar
auto avanzar rasgueos aumentar disminuir cambiar color esconder acordes gráficos
losacordes exhibir acordes losacordes youTube video losacordes ocultar tabs losacordes ir hacia arriba losacordes