Kid Cudi

Início > Kid Cudi > acordes

Heaven At Night Tablatura

Kid Cudi

Dificultad:Ningún gradoNingún grado

deivcavalcanti

tuner correct add songbook print version text version salvar en e-mail
acordesukuleletablaturabajobateríaarmónicaflautacavacopiano Guitar Pro
acordes

Heaven At Night

	  Verse 

e|---------------------------------------------------------------------------| 
B|---------------------------------------------------------------------------| 
G|---------------------------------------------------------------------------| 
D|---------------------------------------------------------------------------| 
A|---------------------------------------------------------------------------| 
E|-3/10-5-7/10-3-8-5-12---3/10-5-7-0-8-0-12--(twice)-------------------------| 

Refrain 

e|---0----------------------------------------------------| 
B|-3---3-1-0------3---1---0---1---3-3-1-0-----------------| 
G|------------2-0---0---0---0---0---------2-0-------------| 
D|--------------------------------------------------------| 
A|--------------------------------------------------------| 
E|--------------------------------------------------------| 

Repeat this theme until the end : 

e|----------------------------------------------------------| 
B|----------------------------------------------------------| 
G|----------------------------------------------------------| 
D|----------------------------------------------------------| 
A|----------------------------------------------------------| 
E|--3/10-5-7/10-3-8-5-12---3/10-5-7-0-8-0-12/3--------------| 
	  

No existe una video leccione para esta canción

request
LosAcordes
Buscar
auto avanzar rasgueos aumentar disminuir cambiar color esconder acordes gráficos
losacordes exhibir acordes losacordes youTube video losacordes ocultar tabs losacordes ir hacia arriba losacordes