Kid Cudi

Início > Kid Cudi > acordes

Going To The Ceremony Tablatura

Kid Cudi

Dificultad:FácilFácil

fernsantana

tuner correct add songbook print version text version salvar en e-mail
acordesukuleletablaturabajobateríaarmónicaflautacavacopiano Guitar Pro
acordes

Going To The Ceremony

	  

Main Riff 
e|----------------------------------------------------------------------| 
B|----------------------------------------------------------------------| 
G|----------------------------------------------------------------------| 
D|------------------------------9---9---8---8---8---8---8---8---8---8---| 
A|-----9---9---9---9---9---9--7---7---6---6---6---6---6---6---6---6-----| 
E|---7---7---7---7---7---7----------------------------------------------| 

Chorus 
e|----------------------------------------------------------------------| 
B|----------------------------------------------------------------------| 
G|---------------8-8----------------------------------------------------| 
D|---9-9-9-9-8-8-----8-8-8-8-6-6-6-6--9-9-9-9-8-8-8-8-6-6-6-6-----------| 
A|------------------------------------------------------------9-9-9-9---| 
E|----------------------------------------------------------------------| 
	  

No existe una video leccione para esta canción

request
LosAcordes
Buscar
auto avanzar rasgueos aumentar disminuir cambiar color esconder acordes gráficos
losacordes exhibir acordes losacordes youTube video losacordes ocultar tabs losacordes ir hacia arriba losacordes