Kenny Loggins

Início > Kenny Logg... > acordes

Danger Zone Tablatura

Kenny Loggins

Dificultad:ExpertoExperto

tuner correct add songbook print version text version salvar en e-mail
acordesukuleletablaturabajobateríaarmónicaflautacavacopiano Guitar Pro
acordes

Danger Zone

Áño: 1997 - Álbum: The Essential Kenny Loggins

	  This is basically how to play "Danger Zone"...I think.
TUNE TO DROP-D FOR BASSLINE.
Enjoy and God bless :)

-|---------------------------------------------------------------------------|
-|---------------------------------------------------------------------------|
-|---------6/8-x-8-x-8-x-8-8-8---6/8-x-8-x-8-x-8-11-11-6---------------------|
-|---------6/8-x-8-x-8-x-8-8-8---6/8-x-8-x-8-x-8-11-11-6---------------------|
-|---------4/6-x-6-x-6-x-6-6-6---4/6-x-6-x-6-x-6-9--9--4---------------------|
-|---------------------------------------------------------------------------|
 intro

-|---------------------------------------------------------------------------|
-|---------------------------------------------------------------------------|
-|---------------------------------------------------------------------------|
-|---------------------------------------------------------------------------|
-|---------------------------------------------------------------------------|
-|0-4-4-6-4-1-----------0-4-4-6-4-1-----------0-4-4-6-4-1---0-0--0-0-0-----1-|
  bass line on guitar.........tune to drop D

-|---------------------------------------------------------------------------|
-|---------------------------------------------------------------------------|
-|6/8-x-8-x-8-x-8-8-8---------------------6/8-x-8-x-8-x-8-8-8---8------------|
-|6/8-x-8-x-8-x-8-8-8---------------------6/8-x-8-x-8-x-8-8-8---8------------|
-|4/6-x-6-x-6-x-6-6-6---------------------4/6-x-6-x-6-x-6-6-6---6------------|
-|---------------------------------------------------------------------------|
  pre-verse rhythm

-|---------------------------------------------------------------------------|
-|---------------------------------------------------------------------------|
-|6------------------8-x-8-8-x-x-8-x-8-8-6-----------------------11----------|
-|6------------------8-x-8-8-x-x-8-x-8-8-6-----------------------11----------|
-|4------------------6-x-6-6-x-x-6-x-6-6-4-----------------------9-----------|
-|---------------------------------------------------------------------------|
  chorus rhythm

-|---------------------------------------------------------------------------|
-|---------------------------------------------------------------------------|
-|8------------------6-------------------8-------------------11--------------|
-|8------------------6-------------------8-------------------11--------------|
-|6------------------4-------------------6-------------------9---------------|
-|---------------------------------------------------------------------------|
              bridge rhythm

-|11b-b---------------------|-9p7p6h7-9p7p6h7-9p7p6h7-9p7p6h7-9p7p6h7-9p7p6h7-|
-|------9--7-9p7-9-9p7-7----|-------------------------------------------------|
-|-----------------------8-8|-------------------------------------------------|
-|--------------------------|-------------------------------------------------|
-|--------------------------|-------------------------------------------------|
-|--------------------------|-------------------------------------------------|
  solo with rhythm at bars

-9p7p6h7-9p7p6h7--9p7-9p7-7p6-7p6-6p4-6p4-4p2-4p2----------------------------|
--------------------------------------------------2-4b-b-b-------------------|
-----------------------------------------------------------------------------|
-----------------------------------------------------------------------------|
-----------------------------------------------------------------------------|
-----------------------------------------------------------------------------|


-|---------------------------|-----------------------------------------------|
-|-8-------------------------|-6---------------------------------------------|
-|-8-------------------------|-6---------------------------------------------|
-|-6-------------------------|-4---------------------------------------------|
-|---------------------------|-----------------------------------------------|
-|---------------------------|-----------------------------------------------|
 rhythm for solo

-|--------------------b20p18----18--------------------------------------------|
-|---------------------------21----21-18--------------------------------------|
-|6/8-x-8-x-8-x-8-8-8---------------------6/8-x-8-x-8-x-8-11-11-6-------------|
-|6/8-x-8-x-8-x-8-8-8---------------------6/8-x-8-x-8-x-8-11-11-6-------------|
-|4/6-x-6-x-6-x-6-6-6---------------------4/6-x-6-x-6-x-6-9--9--4-------------|
-|----------------------------------------------------------------------------|
  pre-verse

-----------------------------------------------------------------------------|
-----------------------------------------------------------------------------|
-6/8-x-8-x-8-x-8-8-8----------------------6/8-x-8-x-8-x-8-8-8---8------------|
-6/8-x-8-x-8-x-8-8-8----------------------6/8-x-8-x-8-x-8-8-8---8------------|
-4/6-x-6-x-6-x-6-6-6----------------------4/6-x-6-x-6-x-6-6-6---6------------|
-----------------------------------------------------------------------------|


-|----------------------------------------------------------------------------|
-|----------------------------------------------------------------------------|
-|6-----------8-x-8-8-x-x-8-x-8-8-6-----------8-x-8-8-x-x-8-x-8-8-6--8--6-----|
-|6-----------8-x-8-8-x-x-8-x-8-8-6-----------8-x-8-8-x-x-8-x-8-8-6--6--6-----|
-|4-----------6-x-6-6-x-x-6-x-6-6-4-----------6-x-6-6-x-x-6-x-6-6-4--6--4-----|
-|----------------------------------------------------------------------------|
  chorus

-----------------------------------------------------------------------------|
-----------------------------------------------------------------------------|
-8---------------------------------------------------------------------------|
-8---------------------------------------------------------------------------|
-6-6-6-x-6-6-6-x-6---6-6-x-6-6-6-x-6---6-6-x-6-6-6-x-6---6-6-x-6-6-6-x-6-----|
-----------------------------------------------------------------------------|


-|---------------------------------------------------------------------------|
-|---------------------------------------------------------------------------|
-|-6----------8-x-8-8-x-x-8-x-8-8-6-----------8-x-8-8-x-x-8-x-8-8-6--8--6--8-|
-|-6----------8-x-8-8-x-x-8-x-8-8-6-----------8-x-8-8-x-x-8-x-8-8-6--8--6--8-|
-|-4----------6-x-6-6-x-x-6-x-6-6-4-----------6-x-6-6-x-x-6-x-6-6-4--6--4--6-|
-|---------------------------------------------------------------------------|
   chorus repeat and fade
	  

No existe una video leccione para esta canción

request
LosAcordes
Buscar
auto avanzar rasgueos aumentar disminuir cambiar color esconder acordes gráficos
losacordes exhibir acordes losacordes youTube video losacordes ocultar tabs losacordes ir hacia arriba losacordes