Kathryn Bernardo

Início > Kathryn Be... > acordes

You Dont Know Me Tablatura

Kathryn Bernardo

Dificultad:Ningún gradoNingún grado

marcnagel

tuner correct add songbook print version text version salvar en e-mail
acordesukuleletablaturabajobateríaarmónicaflautacavacopiano Guitar Pro
acordes

You Dont Know Me

	  

Chords: 

   A        D        E7 
e|-0-|   e|-2-|   e|-0-|   
B|-3-|   B|-3-|   B|-0-|   
G|-3-|   G|-2-|   G|-1-|   
D|-3-|   D|-0-|   D|-0-|   
A|-0-|   A|-x-|   A|-2-|   
E|-x-|   E|-x-|   E|-x-|   

Progression: A D E7 A      Intro, Chorus and â??lalalaâ? parts: A D E7 D A 
      
Intro: (whistle melody) 
   A                        D                       E7          D          A 
e|------------------------------------------------------------------------------------------------------| 
B|------------------------------------------------------------------------------------------------------| 
G|-2-----------2----------------------------------------------------------------------------------------| 
D|----4--2-4------4--2--4---2-4--------2--4---------2-----------2--4------------------------------------| 
A|-------------------------------2--4--------2--4-----4--2--0--------2--0--0----------------------------| 
E|------------------------------------------------------------------------------------------------------| 

verse 1: 
  A                        D                       E7                       A 
e|------------------------------------------------------------------------------------------------------| 
B|------------------------------------------------------------------------------------------------------| 
G|-2-----------2----------------------------------------------------------------------------------------| 
D|----4--2-4------4--2--4---2-4--------2--4---------2-----------2--4--------------------------0---------| 
A|-------------------------------2--4--------2--4-------4-2--4--------2--4---2-4-----2--2--4------------| 
E|--------------------------------------------------------------------------------2---------------------| 
  You  know   You   know   You there  you  know    Said  cared you   bu-sy  Fil- rooms your  light 
    donâ??t me    donâ??t  me   were   but  didnâ??t me      you  but   were       -ling  with  harsh 

       A                       D                      E7                    A                         A 
e|------------------------------------------------------------------------------------------------------| 
B|------------------------------------------------------------------------------------------------------| 
G|-----2----------2-------------------------------------------------------------------------------------| 
D|-2-4-----4--2------4--2--4-2-4----------2-----------2----------2----------2-------------------------2-| 
A|---------------------------------4--2------4--2-4------4-2--4-----4-2-4------4-2--4-2-2--4-2-4-2-4----| 
E|------------------------------------------------------------------------------------------------------| 
 That  always     oh  gloomy  way    words they  me   Into       into       into      I    I wan to 
     I       found  so      your  with   how threw       spirals    riddles     mazes thought ted explore 

            D                             E7                       A 
e|------------------------------------------------------------------------------------------------------| 
B|------------------------------------------------------------------2-----------------------------------| 
G|------------------------------------------------------------------------2-----------------------------| 
D|-4--2-----------------------------------2------------------2--4------4--------------------------------| 
A|-------4-2---4----------------------2-4---------------------------------------------------------------| 
E|---------------2--------------------------------------------------------------------------------------| 
  La la la la la la                  lalala                 la la  la la la 

Chorus: 
               A                    D             E7      D       A 
e|------------------------------------------------------------------------------------------------------| 
B|------------------------------------------------------------------------------------------------------| 
G|------------------------------------------------------------------------------------------------------| 
D|-----------------------------------------------2---2-4------------------------------------------------| 
A|-0-0-0-0-0--2--4------4-4--2-0-2-2--0------2-4----------2---0-0-0-------------------------------------| 
E|------------------------------------------------------------------------------------------------------| 
  Well  this chaos      I  weâ??ve a discord  And more  my     can 
   darling is            think reached        itâ??s than heart   afford 

verse 2: 
   A                        D                    E7                      A 
e|------------------------------------------------------------------------------------------------------| 
B|------------------------------------------------------------------------------------------------------| 
G|-2-----------2----------------------------------------------------------------------------------------| 
D|----4--2-4------4--2--4---2----------2--4------2----------2-----------2-----------2-------------------| 
A|----------------------------4--2--4--------2------4-2--4-----4--2--4-----4--2--4-----4----------------| 
E|------------------------------------------------------------------------------------------------------| 
  You  know  still know    Never     climbing   Feel        even    you never  that    at 
     donâ??t me    donâ??t me       bothered    walls  demolished   though       got   far 

       A                       D                     E7                   A                       A 
e|------------------------------------------------------------------------------------------------------| 
B|------------------------------------------------------------------------------------------------------| 
G|-1---2-1---------2------------------------------------------------------------------------------------| 
D|---------4--2--4----4--2---2-2-4---------2--4------2----------2---------2-2---------------2--4--2h4p2*| 
A|---------------------------------4--2--4-------2-----4--2--4-----4--2-------4--2-0--2--4--------------| 
E|------------------------------------------------------------------------------------------------------| 
   All    the   are  and    All   this  are  and    You  left  Iâ??ll  right   Iâ??ll ya    the      side 
       over place you    I     over phase you    I    take  and   take   Baby   see   on    other  

* You can use 2 as a simpler alternative, or use |-2h4-2-| (remove the pull off) for a stronger sound 

            D                             E7                       A 
e|------------------------------------------------------------------------------------------------------| 
B|------------------------------------------------------------------2-----------------------------------| 
G|------------------------------------------------------------------------2-----------------------------| 
D|-4--2-----------------------------------2------------------2--4------4--------------------------------| 
A|-------4-2---4----------------------2-4---------------------------------------------------------------| 
E|---------------2--------------------------------------------------------------------------------------| 
  La la la la la la                  lalala                 la la  la la la 

Chorus: 
               A                    D             E7      D       A 
e|------------------------------------------------------------------------------------------------------| 
B|------------------------------------------------------------------------------------------------------| 
G|------------------------------------------------------------------------------------------------------| 
D|--------------------------------------------------2---2-4---------------------------------------------| 
A|-0-0-0-0-0--2--4------4--4--2-0-2-2--0------2--4-----------2---0-0-0----------------------------------| 
E|------------------------------------------------------------------------------------------------------| 
  Well  this chaos      I   weâ??ve a discord   And  more  my     can 
   darling is            think reached          itâ??s  than heart  afford 

Interlude: (whistle melody) 

   A                        D                       E7                     A 
e|------------------------------------------------------------------------------------------------------| 
B|------------------------------------------------------------------------------------------------------| 
G|-2-----------2----------------------------------------------------------------------------------------| 
D|----4--2-4------4--2--4---2-4--------2--4---------2----------2--4-------------------------------------| 
A|-------------------------------2--4--------2--0-----4--2--4--------2--0--0---------0-0-0h2**--0-------| 
E|-------------------------------------------------------------------------------2-2--------------------| 

** 0h2 can be replaced with 2 to make it easier 

â??Lalalaâ? part (lyrics and whistle at the same time): (lyrics) 
   A                        D                       E7          D          A 
e|------------------------------------------------------------------------------------------------------| 
B|------------------------------------------------------------------------------------------------------| 
G|-2-----------2----------------------------------------------------------------------------------------| 
D|----4--2-4------4--2--4---2-----------2â??-4---------2----------2---------------------------------------| 
A|------------------------------4-2--4--------2--4------4-2--4-----4--2--4-2-4--------------------------| 
E|------------------------------------------------------------------------------------------------------| 
   La la lala  la la la la  la  lala la la la la la  la lala la la la la lalala 

(whistle) 

e|------------------------------------------------------------------------------------------------------| 
B|------------------------------------------------------------------------------------------------------| 
G|-2-----------2----------------------------------------------------------------------------------------| 
D|----4--2-4------4--2--4---2-4--------2--4---------2-----------2---------------------------------------| 
A|-------------------------------2--4--------2--4-----4--2--0------4--2--0--0---------------------------| 
E|------------------------------------------------------------------------------------------------------| 

Bridge: 
  A                        D                       E7                       A         (Chorus intervenes) 
e|------------------------------------------------------------------------------------------------------| 
B|------------------------------------------------------------------------------------------------------| 
G|-2-----------2----------------------------------------------------------------------------------------| 
D|----4--2-4------4--2--4---2----------2--4---------2----------2--4------------------------2------------| 
A|-----------------------------4-2--4--------2--4------4--2--4-------2--4---2-4------2--4---------------| 
E|-------------------------------------------------------------------------------2----------------------| 
  You  know  still know    Guess never     know    itâ??s  bad  really baby  itâ??s loss       all 
    donâ??t me    donâ??t  me   youâ??ll   really    me     too  â??cause            your    after 

Chorus: (whistle melody not included, sorry) 
               A                    D             E7      D       A 
e|------------------------------------------------------------------------------------------------------| 
B|------------------------------------------------------------------------------------------------------| 
G|------------------------------------------------------------------------------------------------------| 
D|-------------------------------------------------2---2-4----------------------------------------------| 
A|-0-0-0-0-0--2--4------4--4--2-0-2-2--0------2-4-----------2---0-0-0-----------------------------------| 
E|------------------------------------------------------------------------------------------------------| 
  Well  this chaos      I   weâ??ve a discord   And more  my     can 
   darling is            think reached         itâ??s  than heart   afford 

               A                    D             E7      D       A 
e|------------------------------------------------------------------------------------------------------| 
B|------------------------------------------------------------------------------------------------------| 
G|------------------------------------------------------------------------------------------------------| 
D|------------------------------------------------2---2-4-----------------------------------------------| 
A|-0-0-0-0-0--2--4------4--4--2-0-2-2--0------2-4----------2---0-0-0------------------------------------| 
E|------------------------------------------------------------------------------------------------------| 
  Well  this chaos      I   weâ??ve a discord   And more  my    can 
   darling is            think reached         itâ??s than  heart  afford 



I hope this is at least 98.67% accurate. 


Enjoy! B-) 
-AlnelExtreme 
	  

No existe una video leccione para esta canción

request
Aumentar uno tonoAumentar uno tono
Aumentar uno semi-tonoAumentar uno semi-tono
Disminuir uno semi-tonoDisminuir uno semi-tono
Disminuir uno tonoDisminuir uno semi-tono
LosAcordes
Buscar
auto avanzar rasgueos aumentar disminuir cambiar color esconder acordes gráficos
losacordes exhibir acordes losacordes youTube video losacordes ocultar tabs losacordes ir hacia arriba losacordes