Kari Jobe

Início > Kari Jobe > acordes

No Sweeter Name Tablatura

Kari Jobe

Dificultad:Ningún gradoNingún grado

gunswoodguitars

tuner correct add songbook print version text version salvar en e-mail
acordesukuleletablaturabajobateríaarmónicaflautacavacopiano Guitar Pro
acordes

No Sweeter Name

	  Intro 
e|------------------------------------------------------------------------------ 
B|-----8--7----8--7------------------------------------------------------------- 
G|-----------------------7--9--------------------------------------------------- 
D|--9-------9-------5----------------------------------------------------------- 
A|------------------------------------------------------------------------------ 
E|------------------------------------------------------------------------------ 

Lead (In Triplets) 
   G  A  G  A      B  C B C   D   E  D  E    F#  G 
e|-----------------7--8-7-8---10--12-10-12---14-15------------------------------ 
B|-8--10-8-10------------------------------------------------------------------- 
G|------------------------------------------------------------------------------ 
D|------------------------------------------------------------------------------ 
A|------------------------------------------------------------------------------ 
E|------------------------------------------------------------------------------ 

   D  E  D  E    F#  G  F#  G   A   B  A  B   C  B  A 
e|-10-12-10-12---14--15-14-15---17--19-17-19--20-19-17-------------------------- 
B|------------------------------------------------------------------------------ 
G|------------------------------------------------------------------------------ 
D|------------------------------------------------------------------------------ 
A|------------------------------------------------------------------------------ 
E|------------------------------------------------------------------------------ 

   C  D  C  D   E   F# E  F#   G   A  G  B  B    A  G  F# G  A     D  C  B 
e|-8--10-8-10---12--14-12-14---15--17-15-19-19---17-15-14-15-17----------------- 
B|-8---------------------------------------------------------------15-13-12----- 
G|------------------------------------------------------------------------------ 
D|------------------------------------------------------------------------------ 
A|------------------------------------------------------------------------------ 
E|------------------------------------------------------------------------------ 
	  

No existe una video leccione para esta canción

request
Aumentar uno tonoAumentar uno tono
Aumentar uno semi-tonoAumentar uno semi-tono
Disminuir uno semi-tonoDisminuir uno semi-tono
Disminuir uno tonoDisminuir uno semi-tono
LosAcordes
Buscar
auto avanzar rasgueos aumentar disminuir cambiar color esconder acordes gráficos
losacordes exhibir acordes losacordes youTube video losacordes ocultar tabs losacordes ir hacia arriba losacordes