Kana

Início > Kana > acordes

Plantation Tablatura

Kana

Dificultad:ExpertoExperto

tuner correct add songbook print version text version salvar en e-mail
acordesukuleletablaturabajobateríaarmónicaflautacavacopiano Guitar Pro
acordes

Plantation

	  |     G       G       C       C   |     D       D       G       G   |
|---------------------------------|---------------------------------|
|---------------------------------|---------5---5---------5---------|
|---------------2---3-3-----------|-------3---3-------------3-3-3---|
|---------2-3---------------------|---------------------------------|

|     G       G       C       C   |     D       D       G       G   |
|---------------------------------|---------------------------------|
|---------------------------------|-------3-5-5-5---------5---------|
|---------------2---3-3-----------|-------------------------3-3-3---|
|---------2-3---------------------|---------------------------------|
 
	  

No existe una video leccione para esta canción

request
Aumentar uno tonoAumentar uno tono
Aumentar uno semi-tonoAumentar uno semi-tono
Disminuir uno semi-tonoDisminuir uno semi-tono
Disminuir uno tonoDisminuir uno semi-tono
LosAcordes
Buscar
auto avanzar rasgueos aumentar disminuir cambiar color esconder acordes gráficos
losacordes exhibir acordes losacordes youTube video losacordes ocultar tabs losacordes ir hacia arriba losacordes