Kaki King

Início > Kaki King > acordes

Doing the wrong thing Tablatura

Kaki King

Dificultad:ExpertoExperto

davidedante123

tuner correct add songbook print version text version salvar en e-mail
acordesukuleletablaturabajobateríaarmónicaflautacavacopiano Guitar Pro
acordes

Doing the wrong thing

	  Tuning: E G D F# B F# 


e|---3--5--0----------------3--5--0--1--0--------------------------------------| 
B|-----------------------------------------3---------------0--2--3--0----------| 
G|-----------------------------------------------------------------------------| 
D|---4--5--0----------------4--5--0--2--0--------------------------------------| 
A|-----------------------------------------4---------------0--2--4--0----------| 
E|-----------------------------------------------------------------------------| 


e|--3--5--0--1--0-------------------------- -----------------0----------    ---| 
B|-----------------3--2--3--0--2--0-------- --3--2-----0--3-----2/7--0--    ---| 
G|-----------------------------------1----- --------1-------------------    ---| 
D|--4--5--0--2--0-------------------------- -----------------0----------    ---| 
A|-----------------4--2--4--0--2--0-------- --4--2-----0--4-----2/7--0-- x2 ---| 
E|-----------------------------------0----- --------0-------------------    ---| 




e|--5-----5----0-----0----1----0-----------------------------------------------| 
B|------0---0------0---0----0----0--3-----3----2-----2---/7-----7----0-----0---| 
G|----0----------0----------------------0---0------0---0------0---0------0---0-| 
D|--5----------0----------2----0------0----------0----------0----------0-------| 
A|----------------------------------4----------2---------/7----------0---------| x2 
E|-----------------------------------------------------------------------------| 


e|--3-----3----1-----1----5-----5----0-----0-----------------------------------| 
B|------0---0------0---0------0---0------0---0--3-----3----5-----5----0-----0--| 
G|----0----------0----------0----------0------------0---0------0---0------0---0| 
D|--4----------2----------5----------0------------0----------0----------0------| 
A|----------------------------------------------4----------5----------0--------| x2 
E|-----------------------------------------------------------------------------| 


e|-----------------------------------------------------------------------------| 
B|--3-----3----2-----2-----------0--3-----3----2-----2---/7-----7----0-----0---| 
G|------0---0------0---0--1-------------0---0------0---0------0---0------0---0-| 
D|----0----------0------------0-------0----------0----------0----------0-------| 
A|--4----------2------------0----0--4----------2---------/7----------0---------| x2 
E|------------------------0----------------------------------------------------| 


e|--3-----3----1-----1----5-----5----0-----0-----------------------------------| 
B|------0---0------0---0------0---0------0---0--3-----3----5-----5----0-----0--| 
G|----0----------0----------0----------0------------0---0------0---0------0---0| 
D|--4----------2----------5----------0------------0----------0----------0------| 
A|----------------------------------------------4----------5----------0--------| 
E|-----------------------------------------------------------------------------| 


e|--3-----3----1-----1---/5-----5----0-----0-----------------------------------| 
B|------0---0------0---0------0---0------0---0--3-----3----7-----7----0-----0--| 
G|----0----------0----------0----------0------------0---0------0---0------0---0| 
D|--4----------2---------/5----------0------------0----------0----------0------| 
A|----------------------------------------------4----------7----------0--------| 
E|-----------------------------------------------------------------------------| 


e|-----------------------------------------------------------------------------| 
B|--3-----3----2-----2-----------0--3-----3----2-----2---/7-----7----0-----0---| 
G|------0---0------0---0--1-------------0---0------0---0------0---0------0---0-| 
D|----0----------0------------0-------0----------0----------0----------0-------| 
A|--4----------2------------0----0--4----------2---------/7----------0---------| 
E|------------------------0----------------------------------------------------| 

e|----1-----1----5-----5----7-----7----8-----8--12-----12----8-----8----| 
B|--------0---0------0---0------0---0------0---------0----0------0---0--| 
G|------0----------0----------0----------0---------0-----------0--------| 
D|----2----------5----------7----------9--------12-----------9----------| 
A|----------------------------------------------------------------------| 
E|----------------------------------------------------------------------| 

e|---5-----5----5-----5----5-----5----0-----0----1----0-----------------| 
B|-------0---0------0---0------0---0------0---0----0----0--3-----3------| 
G|-----0----------0----------0----------0----------------------0---0----| 
D|---5----------5----------5----------0----------2----0------0----------| 
A|---------------------------------------------------------4------------| 
E|----------------------------------------------------------------------| 

e|----------------------------------------------------------------------| 
B|----2-----2---/7-----7----0-----0----0-----0--------------------------| 
G|--------0---0------0---0------0---0------0---0------------------------| 
D|------0----------0----------0----------0------------------------------| 
A|----2---------/7----------0----------0--------------------------------| 
E|----------------------------------------------------------------------| 

e|---1-----1----5-----5----7-----7----8-----8--12-----12----8-----8-----| 
B|-------0---0------0---0------0---0------0---------0----0------0---0---| 
G|-----0----------0----------0----------0---------0-----------0---------| 
D|---2----------5----------7----------9--------12-----------9-----------| 
A|----------------------------------------------------------------------| 
E|----------------------------------------------------------------------| 


e|--(12)--------(7)------(5)------(7)------(12)--------(7)------(5)------(7)---| 
B|-----(12)-------(7)------(5)------(7)-------(12)-------(7)------(5)----(7)---| 
G|--------(12)------(7)------(5)------(7)--------(12)------(7)------(5)--(7)---| 
D|--(12)--------(7)------(5)------(7)------(12)--------(7)------(5)------(7)---| 
A|-----------------------------------------------------------------------(7)---| 
E|-----------------------------------------------------------------------(7)---| 


e|--3--5--0----x--3--5--0--1--0------x--| 
B|-------------x-----------------3---x--| 
G|-------------x---------------------x--| 
D|--4--5--0----x--4--5--0--2--0------x--| 
A|-------------x-----------------4---x--| 
E|-------------x---------------------x--| 

e|--3--5--7--5--3--1--0---------------------x-------------------0--------------| 
B|-----------------------3--2--5--3--2--0---x--3---2------0--3-----2-/7--0-----| 
G|------------------------------------------x----------1-----------------------| 
D|--4--5--7--5--4--2--0---------------------x-------------------0--------------| 
A|-----------------------4--2--5--4--2--0---x--4---2------0--4-----2-/7--0-----| x2 
E|------------------------------------------x----------0-----------------------| 


e|--5-----5----0-----0----1----0-----------------------------------------------| 
B|------0---0------0---0----0----0--3-----3----2-----2---/7-----7----0-----0---| 
G|----0----------0----------------------0---0------0---0-/----0---0------0---0-| 
D|--5----------0----------2----0------0----------0-------/--0----------0-------| 
A|----------------------------------4----------2---------/7----------0---------| 
E|-----------------------------------------------------------------------------| 


e|--3-----3----1-----1----5-----5----0-----0-----------------------------------| 
B|------0---0------0---0------0---0------0---0--3-----3----7-----7----0-----0--| 
G|----0----------0----------0----------0------------0---0------0---0------0---0| 
D|--4----------2----------5----------0------------0----------0----------0------| 
A|----------------------------------------------4----------7----------0--------| 
E|-----------------------------------------------------------------------------| 


e|-----------------------------------------------------------------------------| 
B|--3-----3----2-----2-----------0--3-----3----2-----2---/7-----7----0-----0---| 
G|------0---0------0---0--1-------------0---0------0---0-/----0---0------0---0-| 
D|----0----------0------------0-------0----------0-------/--0----------0-------| 
A|--4----------2------------0----0--4----------2---------/7----------0---------| 
E|------------------------0----------------------------------------------------| 


e|--1-----1----5-----5----7-----7----8-----8--12-----12----8-----8------| 
B|------0---0------0---0------0---0------0---------0----0------0---0----| 
G|----0----------0----------0----------0---------0-----------0----------| 
D|--2----------5----------7----------9--------12-----------9------------| 
A|----------------------------------------------------------------------| 
E|----------------------------------------------------------------------| 

e|---5-----5----5-----5----5-----5----0-----0----1----0-----------------| 
B|-------0---0------0---0------0---0------0---0----0----0--3-----3------| 
G|-----0----------0----------0----------0----------------------0---0----| 
D|---5----------5----------5----------0----------2----0------0----------| 
A|---------------------------------------------------------4------------| 
E|----------------------------------------------------------------------| 

e|----------------------------------------------------------------------| 
B|----2-----2---/7-----7----0-----0----0-----0--------------------------| 
G|--------0---0-/----0---0------0---0------0---0------------------------| 
D|------0-------/--0----------0----------0------------------------------| 
A|----2---------/7----------0----------0--------------------------------| 
E|----------------------------------------------------------------------| 

e|----------------------------------------------------------------------| 
B|--3-----3----2-----2----3-----3----2-----2----0-----0----0-----0------| 
G|------0---0------0---0------0---0------0---0------0---0------0---0----| 
D|----0----------0----------0----------0----------0----------0----------| 
A|--4----------2----------1----------1----------0----------0------------| x6 
E|----------------------------------------------------------------------| 

e|--------------------------------| 
B|--3-----2-----3-----2-----0-----| 
G|-----0-----0-----0-----0--------| 
D|--------------------------------| 
A|--4-----2-----1-----1-----0-----| 
E|--------------------------------| 
	  

No existe una video leccione para esta canción

request
Aumentar uno tonoAumentar uno tono
Aumentar uno semi-tonoAumentar uno semi-tono
Disminuir uno semi-tonoDisminuir uno semi-tono
Disminuir uno tonoDisminuir uno semi-tono
LosAcordes
Buscar
auto avanzar rasgueos aumentar disminuir cambiar color esconder acordes gráficos
losacordes exhibir acordes losacordes youTube video losacordes ocultar tabs losacordes ir hacia arriba losacordes