Kaizers Orchestra

Início > Kaizers Or... > acordes

Diamant Til Kull Tablatura

Kaizers Orchestra

Dificultad:Ningún gradoNingún grado

tarikike

tuner correct add songbook print version text version salvar en e-mail
acordesukuleletablaturabajobateríaarmónicaflautacavacopiano Guitar Pro
acordes

Diamant Til Kull

	  Intro: 

Guitar 1 
e|------------------------| 
B|------------------------| 
G|------------------------| 
D|------------------------| 
A|--------------------2---| 
D|----------------4-------| 



Guitar 1 
e|------------------------|------------------------| 
B|------------------------|------------------------| 
G|--------1---------------|------------------------| 
D|----2-------------------|----------------2---1---| 
A|4-----------------------|------------------------| 
E|------------------------|------------------------| 

Guitar 2 
e|------------------------|------------------------| 
B|----------2--------2----|---------2---------2----| 
G|----4----------4-----4--|----4----------4-----4--| 
D|------2----------2------|-------2---------2------| 
A|4-------4---4-----------|4-----------4-----------| 
E|------------------------|------------------------| 


Guitar 1 
e|------------------------|------------------------| 
B|------------------------|------------------------| 
G|------------------------|------------------------| 
D|----------------2---1---|------------------------| 
A|2-----------------------|--------------------2---| 
E|------------------------|2---------------4-------| 

Guitar 2 
e|------------------------|------------------------| 
B|----------2--------2----|----------2--------2----| 
G|----4----------4-----4--|----3----------3-----3--| 
D|------4----------4------|------4----------4------| 
A|2-------2---2-----------|------------------------| 
E|------------------------|2-------2---2-----------| 



Guitar 1 
e|------------------------|------------------------| 
B|------------------------|------------------------| 
G|--------1---------------|------------------------| 
D|----2-------------------|----------------2---1---| 
A|4-----------------------|------------------------| 
E|------------------------|------------------------| 

Guitar 2 
e|------------------------|------------------------| 
B|----------2--------2----|---------2---------2----| 
G|----4----------4-----4--|----4----------4-----4--| 
D|------2----------2------|-------2---------2------| 
A|4-------4---4-----------|4-----------4-----------| 
E|------------------------|------------------------| 


Guitar 1                                  ...du må sjå at 
e|------------------------|------------------------| 
B|------------------------|------------------------| 
G|------------------------|------------1-----------| 
D|----------------2---1---|----------------2---4---| 
A|2-----------------------|------------------------| 
E|------------------------|2-----------------------| 

Guitar 2 
e|------------------------|------------------------| 
B|----------2--------2----|----------2--------2----| 
G|----4----------4-----4--|----3----------3-----3--| 
D|------4----------4------|------4----------4------| 
A|2-------2---2-----------|------------------------| 
E|------------------------|2-------2---2-----------| 


Verse: 


Guitar 1 
e|------------------------|------------------------| 
B|------------------------|------------------------| 
G|--------1---------------|------------------------| 
D|----2-------------------|------------------------| 
A|4-----------------------|------------------------| 
E|------------------------|------------------------| 

Guitar 2 
e|------------------------|------------------------| 
B|----------2--------2----|---------2---------2----| 
G|----4----------4-----4--|----4----------4-----4--| 
D|------2----------2------|-------2---------2------| 
A|4-------4---4-----------|4-----------4-----------| 
E|------------------------|------------------------| 

Guitar 1 
e|------------------------|------------------------| 
B|------------------------|------------------------| 
G|------------------------|------------------------| 
D|------------------------|----------------2---1---| 
A|------------------------|------------------------| 
E|------------------------|------------------------| 

Guitar 2 
e|------------------------|------------------------| 
B|----------2--------2----|----------2--------2----| 
G|----4----------4-----4--|----4----------4-----4--| 
D|------2----------2------|------2----------2------| 
A|4-------4---4-----------|4-------4---4-----------| 
E|------------------------|------------------------| 


Guitar 1 
e|------------------------|------------------------| 
B|------------------------|------------------------| 
G|------------------------|------------------------| 
D|----------------2---1---|------------------------| 
A|2-----------------------|--------------------2---| 
E|------------------------|2---------------4-------| 

Guitar 2 
e|------------------------|------------------------| 
B|----------2--------2----|----------2--------2----| 
G|----4----------4-----4--|----3----------3-----3--| 
D|------4----------4------|------4----------4------| 
A|2-------2---2-----------|------------------------| 
E|------------------------|2-------2---2-----------| 




Chorus: 

sjå på meg nå... 
Gitar 1 
e|------------------------|------------------------|------------------------| 
B|------------------------|------------------------|------------------------| 
G|--------1---------------|--------1---------------|--------1---------------| 
D|----2-------------------|----2-------------------|----2-------------------| 
A|4-----------------------|4-----------------------|4-----------------------| 
E|------------------------|------------------------|------------------------| 

Gitar 2: (Listen to the song for rythm) 
   C#m                      C#m                      C#m 
e|------------------------|------------------------|------------------------| 
B|------------------------|------------------------|------------------------| 
G|4-4--------4----------4-|4-4--------4-6--------4-|4-4--------4-6----9--9--| 
D|6-6-x--4h6-6-x-x--4h6-6-|6-6-x--4h6-6-x-x--4h6-6-|6-6-x--4h6-6-x-x--9--9--| 
A|4-4-x--------x-x--4-----|4-4-x--------x-x--4-----|4-4-x--------x-x--7--7--| 
E|------------------------|------------------------|------------------------| 



..jeg kjenner det så, du kunne ha... 

Guitar 1 
e|------------------------|------------------------| 
B|------------------------|------------------------| 
G|------------------------|------------------------| 
D|----1---4---------------|------------------------| 
A|2-----------------------|--------------------2---| 
E|------------------------|2---------------4-------| 

Guitar 2 
e|------------------------|------------------------| 
B|------------------------|------------------------| 
G|4-4--------4---4-----4--|3-3----4---3---3-----3--| 
D|4-4-x--2h4-4-x-4-2h4-4--|4-4----4---4---4-----4--| 
A|2-2-x--------x-2-2---2--|4-4----4---4---4-----4--| 
E|------------------------|2-2----2---2---2-----2--| 





Guitar Solo part on end of each chorus: 

Guitar 1 
e|-----------------------------------|-----------------------------------| 
B|\6/16-16-16-16-16\6/16-16-16-16-16\|\6/16-16-16-16-16\6/16-16-16-16-16\| 
G|-----------------------------------|-----------------------------------| 
D|-----------------------------------|-----------------------------------| 
A|-----------------------------------|-----------------------------------| 
E|-----------------------------------|-----------------------------------| 

  (These two guitar riffs (git 1&2) lasts the same amount of time, just didnt have  
enough room) 

Guitar 2 
e|------------------------|------------------------| 
B|------------------------|------------------------| 
G|4-4--------4----------4-|4-4--------4-6--------4-| 
D|6-6-x--4h6-6-x-x--4h6-6-|6-6-x--4h6-6-x-x--4h6-6-| 
A|4-4-x--------x-x--4-----|4-4-x--------x-x--4-----| 
E|------------------------|------------------------| 

Guitar 1 
e|-----------------------------------|-----------------------------------| 
B|\6/16-16-16-16-16\6/16-16-16-16-16\|\6/16-16-16-16-16\6/16-16-16-16-16\| 
G|-----------------------------------|-----------------------------------| 
D|-----------------------------------|-----------------------------------| 
A|-----------------------------------|-----------------------------------| 
E|-----------------------------------|-----------------------------------| 

 (These two guitar riffs (git 1&2) lasts the same amount of time, just didnt have enough room) 

Guitar 2 
e|------------------------|------------------------| 
B|------------------------|------------------------| 
G|4-4--------4---4-----4--|3-3----4---3---3-----3--| 
D|4-4-x--2h4-4-x-4-2h4-4--|4-4----4---4---4-----4--| 
A|2-2-x--------x-2-2---2--|4-4----4---4---4-----4--| 
E|------------------------|2-2----2---2---2-----2--| 
 
	  

No existe una video leccione para esta canción

request
Aumentar uno tonoAumentar uno tono
Aumentar uno semi-tonoAumentar uno semi-tono
Disminuir uno semi-tonoDisminuir uno semi-tono
Disminuir uno tonoDisminuir uno semi-tono
LosAcordes
Buscar
auto avanzar rasgueos aumentar disminuir cambiar color esconder acordes gráficos
losacordes exhibir acordes losacordes youTube video losacordes ocultar tabs losacordes ir hacia arriba losacordes