Jose Gonzales

Início > Jose Gonza... > acordes

Crosses Tablatura

Jose Gonzales

Dificultad:Ningún gradoNingún grado

pierznj

tuner correct add songbook print version text version salvar en e-mail
acordesukuleletablaturabajobateríaarmónicaflautacavacopiano Guitar Pro
acordes

Crosses

	  Tabbed by: Pierz Newton-John ([email protected]) 
 
Most of the tabs for this song seem to have almost no bearing on what is actually played at all. This complete tab is almost exact to the note ? at any rate any slight inaccuracies will never be noticed by your audience. I?ve put in where the voice comes in, but you?ll have to work out the timing of the lyrics yourself :) 
 
 
                E |-----------------|-----------------|-----------------| 
                B |-0---0---0---0---|-0---0---0---0---|-0---0---0---0---| 
                F#|-8---8---8---7---|-5---5---5---5---|-5---5---5---7---| 
Acoustic Guitar D |---0---0---0---0-|---0---0---0---0-|---0---0---0---0-| 
                A |-----------------|-----------------|-----------------| 
                D |-9-----------7---|-5-----------5---|-5-----------7---| 
 
 
 
E |-----0-------0---|-----------------|-----------------|-----------------| 
B |-0---0---7---0---|-0---0---0---0---|-0---0---0---0---|-0---0---0---0---| 
F#|-8-------8-------|-8---8---8---7---|-5---5---5---5---|-5---5---0---3---| 
D |---0---0---0---0-|---0---0---0---0-|---0---0---0---0-|---0---0-------0-| 
A |-----------------|-----------------|-----------------|-----------------| 
D |-9---------------|-----9-------7---|-5-----------5---|-5---------5-----| 
 
 
E |-----------------|-----------------|-----------------|-----------------| 
B |-0---0---0---0---|-0---0---0---0---|-0---0---0---0---|-0---0---0---0---| 
F#|-0---0---0---0---|-8---8---8---7---|-5---5---5---5---|-5---5---5---7---| 
D |---0---0---0---0-|---0---0---0---0-|---0---0---0---0-|---0---0---0---0-| 
A |-----------------|-----------------|-----------------|-----------------| 
D |-9-----------7---|-9-----------7---|-5-----------5---|-5-----------7---| 
                              Don?t you... 
 
E |-----0-------0---|-----------------|-----0-----------|-----------------| 
B |-0---0---7---0---|-0---0---0---0---|-0---0---0---0---|-0---0---0---0---| 
F#|-8-------8-------|-8---8---8---7---|-5-------5---5---|-5---5---5---7---| 
D |---0---0---0---0-|---0---0---0---0+|---0---0---0---0-|---0---0---0---0-| 
A |-----------------|-----------------|-----------------|-----------------| 
D |-9---------------|-----9-------7---|-5-----------5---|-5-----------7---| 
 
 
E |-----0-----------|-----0-----------|-----0-----------|-----0-----------| 
B |-0---0---0---0---|-0---0---0---0---|-0---0---0---0---|-0---0---0---0---| 
F#|-8-------8---8---|-8-------8---7---|-5-------5---5---|-5-------5---7---| 
D |---0---0---0---0-|---0---0---0---0-|---0---0---0---0-|---0---0---0---0-| 
A |-----------------|-----------------|-----------------|-----------------| 
D |-9-----------9---|-9-------9---7---|-5-----------5---|-5-----------7---| 
 
 
E |-----0-------0---|-----------------|-----0-----------|-----------------| 
B |-0---0---7---0---|-0---0---0---0---|-0---0---0---0---|-0---0---0---0---| 
F#|-8-------8-------|-8---8---8---7---|-5-------5---5---|-5---5---0---3---| 
D |---0---0---0---0-|---0---0---0---0-|---0---0---0---0-|---0---0-------0-| 
A |-----------------|-----------------|-----------------|-----------------| 
D |-9---------------|-----9-------7---|-5-----------5---|-5---------5-----| 
 
 
E |-----------------|-----0-----------|-----------------|-----------------| 
B |-0---0---0---0---|-----0---3---0---|-----0---0-------|-0---0---0---0---| 
F#|-0---0---0---0---|---------0---0---|-3---0---0-------|-0---0---0---0---| 
D |---0---0---0---0-|---0---0---0---0-|---0---0---0-----|---0---0---0---0-| 
A |-------------9---|-2---------------|-------------4---|-5---------------| 
D |-9-----------9---|-2---------------|-------------4---|-5---------------| 
 
 
E |-----------------|-----------------|-----------------|-----------------| 
B |-0---0---0-------|-0---0---0---0---|-0---0---0---0---|-0---0---0---0---| 
F#|-0---0---0-------|-8---8---8---7---|-5---5---5---5---|-5---5---5---7---| 
D |---0---0---------|---0---0---0---0-|---0---0---0---0-|---0---0---0---0-| 
A |-----------0-----|-----------------|-----------------|-----------------| 
D |-----------0-----|-9-----------7---|-5-----------5---|-5-----------7---| 
 
 
E |-----0-------0---|-----------------|-----0-----------|-----------------| 
B |-0---0---7---0---|-0---0---0---0---|-0---0---0---0---|-0---0---0---0---| 
F#|-8-------8-------|-8---8---8---7---|-5-------5---5---|-5---5---5---7---| 
D |---0---0---0---0-|---0---0---0---0+|---0---0---0---0-|---0---0---0---0-| 
A |-----------------|-----------------|-----------------|-----------------| 
D |-9---------------|-----9-------7---|-5-----------5---|-5-----------7---| 
 
 
E |-----0-----------|-----------------|-----------------|-----------------| 
B |-0---0---0---0---|-0---0---0---0---|-0---0+--0---0---|-0---0---0---0---| 
F#|-8-------8---8---|-8---8---8---7---|-5---5---5---5---|-5---5---5---7---| 
D |---0---0---0---0-|---0---0---0---0-|---0---0---0---0-|---0---0---0---0-| 
A |-----------------|-----------------|-----------------|-----------------| 
D |-9---------9---9-|---9-9-------7---|-5-----------5---|-5-----------7---| 
 
 
E |-----0-------0---|-----------------|-----0-----------|-----------------| 
B |-0---0---7---0---|-0---0---0---0---|-0---0---0---0---|-0---0---0---0---| 
F#|-8-------8-------|-8---8---8---7---|-5-------5---5---|-5---5---0---3---| 
D |---0---0---0---0-|---0---0---0---0-|---0---0---0---0-|---0---0-------0-| 
A |-----------------|-----------------|-----------------|-----------------| 
D |-9---------------|-----9-------7---|-5-----------5---|-5---------5-----| 
 
 
E |-----------------|-----0-----------|-----------------|-----------------| 
B |-0-0-0---0---0---|-----0---3---0---|-----0---0-------|-0---0---0---0---| 
F#|-0-0-0---0---0---|---------0---0---|-3---0---0-------|-0---0---0---0---| 
D |---0---0---0---0-|---0---0---0---0-|---0---0---0-----|---0---0---0---0-| 
A |-------------9---|-2---------------|-------------4---|-5---------------| 
D |-9-----------9---|-2---------------|-------------4---|-5---------------| 
 
 
E |-----------------|-------0---------|-----0-------0---|-----0---0---0---| 
B |-0---0---0-------|---0-----0-----0-|-0---0---0---0---|-0---0---0---0---| 
F#|-0---0---0-----0-|-----8-----8-----|---8---8-------8-|---8---8-------8-| 
D |---0---0---0-5---|-9-----------9---|-7---------7-----|-9---------9-----| 
A |-----------------|-----------------|-----------------|-----------------| 
D |-----------------|-----------------|-----------------|-----------------| 
 
 
E |-----0---0---0---|-----0---0---0---|-----0---0---0---|-----0---0---0---| 
B |-0---0---0---0---|-0---0---0---0---|-0---0---0---0---|-0---0---0---0---| 
F#|---8---8---8---8-|---8---8---8---8-|---8---8-------8-|---8---8-------8-| 
D |-7---------7-----|-9---------9-----|-7---------7-----|-----------------| 
A |-----------------|-----------------|-----------------|-9---------9-----| 
D |-----------------|-----------------|-----------------|-----------------| 
 
 
E |-----0---0---0---|-----0---0---0---|-----0---0---0---|-----0---0---0---| 
B |-----0---0---0---|-0---0---0---0---|-0---0---0---0---|-0---0---0---0---| 
F#|---8---8-------8-|---8---8---8---8-|---8---8-------8-|---8---8-------8-| 
D |-----------------|-9---------9-----|-7---------7-----|-----------------| 
A |-7---------7-----|-----------------|-----------------|-9---------9-----| 
D |-----------------|-----------------|-----------------|-----------------| 
 
 
E |-----0---0---0---|-----0---0---0---|-----0---0---0---|-----0---0---0---| 
B |-----0---0---0---|-0---0---0---0---|-0---0---0---0---|-0---0---0---0---| 
F#|---8---8-------8-|---8---8---8---8-|---8---8-------8-|---8---8-------8-| 
D |-----------------|-9---------9-----|-7---------7-----|-----------------| 
A |-7---------7-----|-----------------|-----------------|-9---------9-----| 
D |-----------------|-----------------|-----------------|-----------------| 
 
 
E |-----0---0---0---|-----0---0---0---|-----0---0---0---|-----0---0---0---| 
B |-----0---0---0---|-0---0---0---0---|-0---0---0---0---|-0---0---0---0---| 
F#|---8---8---8---8-|---8---8---8---8-|---8---8-------8-|---8---8---8---8-| 
D |-------------9---|-9---------9-----|-7---------7-----|-9---------9-----| 
A |-7---------------|-----------------|-----------------|-----------------| 
D |-----------------|-----------------|-----------------|-----------------| 
 
 
E |-----0---0-0-----|-----------------|-----------------|-----------------| 
B |-0---0---0-0-----|-0---0---0---0---|-0---0---0---0---|-0---0---0---0---| 
F#|---8---8---0-----|-8---8---8---7---|-5---5---5---5---|-5---5---5---7---| 
D |-9-----------0-0-|---0---0---0---0-|---0---0---0---0-|---0---0---0---0-| 
A |-------------0-0-|---------------0-|-0---------------|-----------------| 
D |-------------0-0-|-9-----------7-7-|-5-----------5---|-5-----------7---| 
 
 
E |-----0-------0---|-----------------|-----------------|-----------------| 
B |-0---0---7---0---|-0---0---0---0---|-0---0---0---0---|-0---0---0---0---| 
F#|-8-------8-------|-8---8---8---7---|-5---5---5---5---|-5---5---5---7---| 
D |---0---0---0---0-|---0---0---0---0-|---0---0---0---0-|---0---0---0---0-| 
A |-----------------|-----------------|-----------------|-----------------| 
D |-9---------------|-----9-------7---|-5---------5---5-|-5-----------7---| 
 
 
E |-----------------|-----------------|-----0-----------|-----0-----------| 
B |-0---0---0---0---|-0---0---0---0---|-0---0---0---0---|-0---0---0---0---| 
F#|-8-------8---8---|-8-------8---7---|-5-------5---5---|-5-------5---7---| 
D |---0---0---0---0-|---0---0---0---0-|---0---0---0---0-|---0---0---0---0-| 
A |-----------------|-----------------|-----------------|-----------------| 
D |-9-----------9---|-9-------9---7---|-5-----------5---|-5-----------7---| 
 
 
E |-----0-------0---|-----------------|-----0-----------|-----------------| 
B |-0---0---7---0---|-0---0---0---0---|-0---0---0---0---|-0---0---0---0---| 
F#|-8-------8-------|-8---8---8---7---|-5-------5---5---|-5---5---0---3---| 
D |---0---0---0---0-|---0---0---0---0-|---0---0---0---0-|---0---0-------0-| 
A |-----------------|-----------------|-----------------|-----------------| 
D |-9---------------|-----9-------7---|-5-----------5---|-5---------5-----| 
 
 
E |-----------------|-----0-----------|-----------------|-0---------------| 
B |-0---0---0---0---|-----0---3---0---|-----0---0-------|-0---------------| 
F#|-0---0---0---0---|---------0---0---|-3---0---0-------|-0---------------| 
D |---0---0---0---0-|---0---0---0---0-|---0---0---0-----|-0---------------| 
A |-------------9---|-2---------------|-------------4---|-5---------------| 
D |-9-----------9---|-2---------------|-------------4---|-5---------------| 
 
 
Words: 
 
Don't you know that I'll be around to guide you 
Through your weakest moments to leave them behind you 
Returning nightmares only shadows 
We'll cast some light and you'll be alright  
We'll cast some light and you'll be alright for now 
 
Crosses all over, heavy on your shoulders 
The sirens inside you waiting to step forward 
Disturbing silence darkens you sight 
We'll cast some light and you'll be alright 
We'll cast some light and you'll be alright for now 
 
Crosses all over the boulevard 
Crosses all over the boulevard 
Crosses all over the boulevard 
Crosses all over the boulevard 
 
The streets outside your window overflooded 
People staring, they know you've been broken 
Repeatedly reminded by the looks on their faces 
Ignore them tonight and you'll be alright 
We'll cast some light and you'll be alright 
 
 

	  

No existe una video leccione para esta canción

request
LosAcordes
Buscar
auto avanzar rasgueos aumentar disminuir cambiar color esconder acordes gráficos
losacordes exhibir acordes losacordes youTube video losacordes ocultar tabs losacordes ir hacia arriba losacordes