Jorge Trevisol

Início > Jorge Trev... > acordes

O Mesmo Rosto Tablatura

Jorge Trevisol

Dificultad:AdelantadoAdelantado

Rcao

tuner correct add songbook print version text version salvar en e-mail
acordesukuleletablaturabajobateríaarmónicaflautacavacopiano Guitar Pro
acordes

O Mesmo Rosto

	  Solo do meio da música 

E----------------------------------- 
B------------8-9-8------------------ 
G---8-8---10-------8-10------------- 
D-8-----8--------------------------- 
A----------------------------------- 
E----------------------------------- 


E----------------------------------- 
B----------------------------------- 
G-8-8-8-10-10---8-8-7--------------- 
D-------------8-------10-8---------- 
A----------------------------------- 
E----------------------------------- 


E---11-11-11-11-8-8-10-11-10-8------ 
B------------------------------11--- 
G-8--------------------------------- 
D----------------------------------- 
A----------------------------------- 
E----------------------------------- 


E----------------------------------- 
B---9-9/11-11-9-8------------------- 
G-8---------------10-8-8-10-8-10-12- 
D----------------------------------- 
A----------------------------------- 
E----------------------------------- 


E---11-11-11-11-8-8-10-11-10-8------ 
B------------------------------11--- 
G-8--------------------------------- 
D----------------------------------- 
A----------------------------------- 
E----------------------------------- 


E----------------------------------- 
B---9-9/11-11-9-8------------------- 
G-8---------------10-8-8-10-8-10-12- 
D----------------------------------- 
A----------------------------------- 
E----------------------------------- 

Autor: rcao 
	  

No existe una video leccione para esta canción

request
LosAcordes
Buscar
auto avanzar rasgueos aumentar disminuir cambiar color esconder acordes gráficos
losacordes exhibir acordes losacordes youTube video losacordes ocultar tabs losacordes ir hacia arriba losacordes