Johnny Winter

Início > Johnny Win... > acordes

Johnny B Goode Tablatura

Johnny Winter

Dificultad:Ningún gradoNingún grado

ubirbomfim

tuner correct add songbook print version text version salvar en e-mail
acordesukuleletablaturabajobateríaarmónicaflautacavacopiano Guitar Pro
acordes

Johnny B Goode

	  
Gtr I (E A D G B E) - 'Johnny Winter - Electric Guitar' 
Gtr II (E A D G B E) - 'Johnny Winter - Electric Guitar' 
Gtr III (E A D G B E) - 'Johnny Winter - Electric Guitar' 

 Intro 
  Q=162 
  N.C.             B 
 4/4 
  Gtr I (El. Gtr. w/ light dist.) 
  H    E S S E E    E E E  E E E  E E    E   S S E  E    E E S S E 
|----------------|-/7-7-7-/7-7-7-/7-7-|--7-------7-------7---------| 
|------------7-9-|-/7-7-7-/7-7-7-/7-7-|--7-----7---10b12---7-------| 
|----------8-----|--------------------|-----10---------------9p7---| 
|--------9-------|--------------------|--------------------------9-| 
|----------------|--------------------|----------------------------| 
|----------------|--------------------|----------------------------| 
| 
| Gtr II (El. Gtr. w/ light dist.) 
| W                 W                   +W 
|----------------|--------------------|----------------------------| 
|----------------|--------------------|----------------------------| 
|----------------|--4-----------------|-(4)------------------------| 
|----------------|--4-----------------|-(4)------------------------| 
|----------------|--2-----------------|-(2)------------------------| 
|----------------|--------------------|----------------------------| 


                                         G 
  E E E E  E E E E    E  E E E   E E E E 
|------------------|---------------------| 
|-----9-x-10-x-9-x-|--7s=5-5p4---4s2-2p0-| 
|-7h8-9-x-11-x-9-x-|--8s=6-6p4---4s2-2p0-| 
|-7---9-x--9-x-9-x-|---------------------| 
|------------------|---------------------| 
|------------------|---------------------| 
| 
| Gtr III                                G 
| E Q   E  Q   E E   +E  E E E a E E E E 
|------------------|---------------------| 
|------------------|---------------------| 
|------------------|---------------------| 
|---9------7-----9-|-(9)---7-9-----------| 
|------------------|-----------9s7p5-7-5-| 
|-7-----7------7---|-----7---------------| 


  E 
 Gtr III (El. Gtr. w/ light dist.) 
  Q   q   q   E a E   +Q    q   q   q 
|-------------------|-------------------| 
|-----2---3---2---0-|-(0)---2---3---2---| 
|-----2---4---2-0h1-|-(1)---2---4---2---| 
|-----2---2---2---0-|-(0)---2---2---2---| 
|-------------------|-------------------| 
|-------------------|-------------------| 
| 
|Gtr II 
| E Q   E E E E   E   +E  Q   E E E E E 
|-------------------|-------------------| 
|-------------------|-------------------| 
|-------------------|-------------------| 
|---2---------------|-------------------| 
|---------5-2-4---2-|-(2)-2-----5-2-4---| 
|-0-----0-0-0-0---0-|-(0)-----0-0-0-0-0-| 


  B                                              F# 
  Q    q    q    E a E   +Q     q    q    q       Q    q   q   E a E 
|----------------------|-----------------------|---------------------| 
|------9---10----9---7-|-(7)----9---10----9\---|-------4---5---4---2-| 
|------9---11----9-7h8-|-(8)----9---11----9\---|-------4---6---4-2h3-| 
|------9----9----9---7-|-(7)----9----9----9\---|-------4---4---4---2-| 
|----------------------|-----------------------|---------------------| 
|----------------------|-----------------------|---------------------| 
| 
| E E  E E  E E  E   E   +E  E  E E  E E  E  E   +E  E E E E E E   E 
|----------------------|-----------------------|---------------------| 
|----------------------|-----------------------|---------------------| 
|----------------------|-----------------------|---------------------| 
|----------------------|-----------------------|---------------------| 
|-9-9-11-9-12-9-11---9-|-(9)-9-11-9-12-9-11\-4-|-(4)-4-6-4-7-4-6---4-| 
|-7-7--7-7--7-7--7---7-|-(7)-7--7-7--7-7--7\-2-|-(2)-2-2-2-2-2-2---2-| 


                       B 
  Gtr I 
   W                   E  S S  E E  E E  E   E    E   E   E E  E  E  E   E 
|--------------------|-------------------------|---------------------------|| 
|--------------------|---------7-9-10-x--9---x-|---------------------------|| 
|--------------------|------8----9-11-x--9---x-|--7h==8---9-7h=8--9--7-----|| 
|--------------------|---/9--------------------|--7--(7)--9-7-(7)-9--7---9-|| 
|--------------------|-------------------------|-------------------------9-|| 
|--------------------|-------------------------|---------------------------|| 
| 
| Gtr III 
| +Q    q   q   q      Q       q    q    E a E   +Q       q    q     E a E 
|--------------------|-------------------------|---------------------------|| 
|-(2)---4---5---4----|---------9---10----9---7-|-(7)------9---10-----9---7-|| 
|-(3)---4---6---4----|---------9---11----9-7h8-|-(8)------9---11-----9-7h8-|| 
|-(2)---4---4---4----|---------9----9----9---7-|-(7)------9----9-----9---7-|| 
|--------------------|-------------------------|---------------------------|| 
|--------------------|-------------------------|---------------------------|| 
| 
| Gtr II 
|  E  E E E E E E E    E  E    E E  E E  E   E   +E   E   E E  E  E  E   E 
|--------------------|-------------------------|---------------------------|| 
|--------------------|-------------------------|---------------------------|| 
|--------------------|-------------------------|---------------------------|| 
|--------------------|-------------------------|---------------------------|| 
|--7--4-6-4-7-4-6-4/-|-9--9---11-9-12-9-11---9-|-(9)--9--11-9-12--9-11---9-|| 
|--2--2-2-2-2-2-2-2/-|-7--7----7-7--7-7--7---7-|-(7)--7---7-7--7--7--7---7-|| 


 1st - 3rd Verses 
  $ 
  $$ 
  B 
  Gtr III 
  Q    q    q    E a E   +Q     q    q    E a E 
|----------------------|------------------------| 
|------9---10----9---7-|-(7)----9---10----9---7-| 
|------9---11----9-7h8-|-(8)----9---11----9-7h8-| 
|------9----9----9---7-|-(7)----9----9----9---7-| 
|----------------------|------------------------| 
|----------------------|------------------------| 
| 
| Gtr II 
| E E  E E  E E  E   E   +E  E  E E  E E  E   E 
|----------------------|------------------------| 
|----------------------|------------------------| 
|----------------------|------------------------| 
|----------------------|------------------------| 
|-9-9-11-9-12-9-11---9-|-(9)-9-11-9-12-9-11---9-| 
|-7-7--7-7--7-7--7---7-|-(7)-7--7-7--7-7--7---7-| 


  +Q     q    q    E a E   +Q     q    q    q 
|------------------------|-------------------------| 
|-(7)----9---10----9---7-|-(7)----9---10----9\-----| 
|-(8)----9---11----9-7h8-|-(8)----9---11----9\-----| 
|-(7)----9----9----9---7-|-(7)----9----9----9\-----| 
|------------------------|-------------------------| 
|------------------------|-------------------------| 
| 
| +E  E  E E  E E  E   E   +E  E  E E  E E  E  E 
|------------------------|-------------------------| 
|------------------------|-------------------------| 
|------------------------|-------------------------| 
|------------------------|-------------------------| 
|-(9)-9-11-9-12-9-11---9-|-(9)-9-11-9-12-9-11\-2---| 
|-(7)-7--7-7--7-7--7---7-|-(7)-7--7-7--7-7--7\-0---| 


   Q    q   q   E a E   +Q    q   q   q 
|---------------------|-------------------| 
|-------2---3---2---0-|-(0)---2---3---2---| 
|-------2---4---2-0h1-|-(1)---2---4---2---| 
|-------2---2---2---0-|-(0)---2---2---2---| 
|---------------------|-------------------| 
|---------------------|-------------------| 
| 
| +E  E E E E E E   E   +E  E E E E E E E 
|---------------------|-------------------| 
|---------------------|-------------------| 
|---------------------|-------------------| 
|---------------------|-------------------| 
|-(2)-2-4-2-5-2-4---2-|-(2)-2-4-2-5-2-4-2-| 
|-(0)-0-0-0-0-0-0---0-|-(0)-0-0-0-0-0-0-0-| 


  Q    q    q    E a E   +Q     q    q    q 
|----------------------|-----------------------| 
|------9---10----9---7-|-(7)----9---10----9\---| 
|------9---11----9-7h8-|-(8)----9---11----9\---| 
|------9----9----9---7-|-(7)----9----9----9\---| 
|----------------------|-----------------------| 
|----------------------|-----------------------| 
| 
| E E  E E  E E  E   E   +E  E  E E  E E  E  E 
|----------------------|-----------------------| 
|----------------------|-----------------------| 
|----------------------|-----------------------| 
|----------------------|-----------------------| 
|-9-9-11-9-12-9-11---9-|-(9)-9-11-9-12-9-11\-4-| 
|-7-7--7-7--7-7--7---7-|-(7)-7--7-7--7-7--7\-2-| 


                               To Dbl. Coda 
  F# 
  Gtr I 
   W                     W 
|---------------------|---------------------| 
|---------------------|---------------------| 
|---------------------|---------------------| 
|---------------------|---------------------| 
|---------------------|---------------------| 
|---------------------|---------------------| 
| 
| Gtr III 
|  Q    q   q   E a E   +Q    q   q   q 
|---------------------|---------------------| 
|-------4---5---4---2-|-(2)---4---5---4-----| 
|-------4---6---4-2h3-|-(3)---4---6---4-----| 
|-------4---4---4---2-|-(2)---4---4---4-----| 
|---------------------|---------------------| 
|---------------------|---------------------| 
| 
| Gtr II 
| +E  E E E E E E   E    E  E E E E E E E 
|---------------------|---------------------| 
|---------------------|---------------------| 
|---------------------|---------------------| 
|---------------------|---------------------| 
|-(4)-4-6-4-7-4-6---4-|--7--4-6-4-7-4-6-4/--| 
|-(2)-2-2-2-2-2-2---2-|--2--2-2-2-2-2-2-2/--| 


                                               To Coda 
  B 
  E  S S  E E  E E  E   E    E   E   E E  E  E  E   E 
|-------------------------|-----------------------------|| 
|---------7-9-10-x--9---x-|-----------------------------|| 
|------8----9-11-x--9---x-|--7h==8---9-7h=8--9--7-------|| 
|---/9--------------------|--7--(7)--9-7-(7)-9--7---9---|| 
|-------------------------|-------------------------9---|| 
|-------------------------|-----------------------------|| 
| 
| Q       q    q    E a E   +Q       q    q     E a E 
|-------------------------|-----------------------------|| 
|---------9---10----9---7-|-(7)------9---10-----9---7---|| 
|---------9---11----9-7h8-|-(8)------9---11-----9-7h8---|| 
|---------9----9----9---7-|-(7)------9----9-----9---7---|| 
|-------------------------|-----------------------------|| 
|-------------------------|-----------------------------|| 
| 
| E  E    E E  E E  E   E   +E   E   E E  E  E  E   E 
|-------------------------|-----------------------------|| 
|-------------------------|-----------------------------|| 
|-------------------------|-----------------------------|| 
|-------------------------|-----------------------------|| 
|-9--9---11-9-12-9-11---9-|-(9)--9--11-9-12--9-11---9---|| 
|-7--7----7-7--7-7--7---7-|-(7)--7---7-7--7--7--7---7---|| 


 Chorus 
  B 
  E  E     E  E  E     E  E   E    W 
|-------------------------------|------------------------| 
|---------10-10-------10-10-----|------------------------| 
|---12b14-------12b14-----------|------------------------| 
|-------------------------------|------------------------| 
|-------------------------------|------------------------| 
|-------------------------------|------------------------| 
| 
| Q        q     q        E a E   +Q     q    q    E a E 
|-------------------------------|------------------------| 
|----------9----10--------9---7-|-(7)----9---10----9---7-| 
|----------9----11--------9-7h8-|-(8)----9---11----9-7h8-| 
|----------9-----9--------9---7-|-(7)----9----9----9---7-| 
|-------------------------------|------------------------| 
|-------------------------------|------------------------| 
| 
| E  E     E  E  E     E  E   E   +E  E  E E  E E  E   E 
|-------------------------------|------------------------| 
|-------------------------------|------------------------| 
|-------------------------------|------------------------| 
|-------------------------------|------------------------| 
|-9--9----11--9-12-----9-11---9-|-(9)-9-11-9-12-9-11---9-| 
|-7--7-----7--7--7-----7--7---7-|-(7)-7--7-7--7-7--7---7-| 


   E   E  E  E  E  Q       E    W 
|----------------------------|-------------------------| 
|-----10-10-10-10-12\--------|-------------------------| 
|-----11-11-11-11-11\--------|-------------------------| 
|------9--9--9--9--9\--------|-------------------------| 
|----------------------------|-------------------------| 
|----------------------------|-------------------------| 
| 
| +Q      q     q      E a E   +Q     q    q    q 
|----------------------------|-------------------------| 
|-(7)-----9----10------9---7-|-(7)----9---10----9\-----| 
|-(8)-----9----11------9-7h8-|-(8)----9---11----9\-----| 
|-(7)-----9-----9------9---7-|-(7)----9----9----9\-----| 
|----------------------------|-------------------------| 
|----------------------------|-------------------------| 
| 
| +E   E  E  E  E  E   E   E   +E  E  E E  E E  E  E 
|----------------------------|-------------------------| 
|----------------------------|-------------------------| 
|----------------------------|-------------------------| 
|----------------------------|-------------------------| 
|-(9)--9-11--9-12--9--11---9-|-(9)-9-11-9-12-9-11--9---| 
|-(7)--7--7--7--7--7---7---7-|-(7)-7--7-7--7-7--7--7---| 


  E 
  E E     E E  E    E  E   E    W 
|-----------7----------7-----|----------------------| 
|---------7---------7--------|----------------------| 
|---9b11-------9b11----------|----------------------| 
|----------------------------|----------------------| 
|----------------------------|----------------------| 
|----------------------------|----------------------| 
| 
| Q       q    q       E a E   +Q     q    q    q 
|----------------------------|----------------------| 
|---------2----3-------2---0-|-(0)----2----3----2---| 
|---------2----4-------2-0h1-|-(1)----2----4----2---| 
|---------2----2-------2---0-|-(0)----2----2----2---| 
|----------------------------|----------------------| 
|----------------------------|----------------------| 
| 
| E E     E E  E    E  E   E   +E  E  E E  E E  E E 
|----------------------------|----------------------| 
|----------------------------|----------------------| 
|----------------------------|----------------------| 
|-9-9----11-9-12----9-11---9-|-(9)-9-11-9-12-9-11---| 
|-7-7-----7-7--7----7--7---7-|-(7)-7--7-7--7-7--7---| 
|----------------------------|--------------------0-| 


  B 
  E Q      E  Q      E    E    W 
|---------------------------|-----------------------| 
|----------7---------7\-----|-----------------------| 
|---7b8-------7b8-----------|-----------------------| 
|---------------------------|-----------------------| 
|---------------------------|-----------------------| 
|---------------------------|-----------------------| 
| 
| Q      q    q      E  a E   +Q     q    q    q 
|---------------------------|-----------------------| 
|--------9---10------9----7-|-(7)----9---10----9\---| 
|--------9---11------9--7h8-|-(8)----9---11----9\---| 
|--------9----9------9----7-|-(7)----9----9----9\---| 
|---------------------------|-----------------------| 
|---------------------------|-----------------------| 
| 
| E E    E E  E   E  E    E   +E  E  E E  E E  E  E 
|---------------------------|-----------------------| 
|---------------------------|-----------------------| 
|---------------------------|-----------------------| 
|---------------------------|-----------------------| 
|-9-9---11-9-12---9-11----9-|-(9)-9-11-9-12-9-11\-4-| 
|-7-7----7-7--7---7--7----7-|-(7)-7--7-7--7-7--7\-2-| 


  F# 
   E    E  E  E  E  E E   E   +Q    +Q     H 
|---------------------------|-----------------------| 
|-----/10-10-10-10-10-----9-|-(9)---(9)\------------| 
|-----/11-11-11-11-11-----9-|-(9)---(9)\------------| 
|---------------------------|-----------------------| 
|---------------------------|-----------------------| 
|---------------------------|-----------------------| 
| 
|  Q       q     q    E a E    Q     q     q   q 
|---------------------------|-----------------------| 
|----------4-----5----4---2-|--2-----4-----5---4----| 
|----------4-----6----4-2h3-|--3-----4-----6---4----| 
|----------4-----4----4---2-|--2-----4-----4---4----| 
|---------------------------|-----------------------| 
|---------------------------|-----------------------| 
| 
| +E    E  E  E  E  E E   E    E  E  E   E E E E E 
|---------------------------|-----------------------| 
|---------------------------|-----------------------| 
|---------------------------|-----------------------| 
|---------------------------|-----------------------| 
|-(4)---4--6--4--7--4-6---4-|--7--4--6---4-7-4-6-4/-| 
|-(2)---2--2--2--2--2-2---2-|--2--2--2---2-2-2-2-2/-| 


                                          D.S. al Coda 
  B 
  E  S S  E E  E E  E   E    E   E   E E  E  E  E   E 
|-------------------------|----------------------------|| 
|---------7-9-10-x--9---x-|----------------------------|| 
|------8----9-11-x--9---x-|--7h==8---9-7h=8--9--7------|| 
|---/9--------------------|--7--(7)--9-7-(7)-9--7---9--|| 
|-------------------------|-------------------------9--|| 
|-------------------------|----------------------------|| 
| 
| Q       q    q    E a E   +Q       q    q     E a E 
|-------------------------|----------------------------|| 
|---------9---10----9---7-|-(7)------9---10-----9---7--|| 
|---------9---11----9-7h8-|-(8)------9---11-----9-7h8--|| 
|---------9----9----9---7-|-(7)------9----9-----9---7--|| 
|-------------------------|----------------------------|| 
|-------------------------|----------------------------|| 
| 
| E  E    E E  E E  E   E   +E   E   E E  E  E  E   E 
|-------------------------|----------------------------|| 
|-------------------------|----------------------------|| 
|-------------------------|----------------------------|| 
|-------------------------|----------------------------|| 
|-9--9---11-9-12-9-11---9-|-(9)--9--11-9-12--9-11---9--|| 
|-7--7----7-7--7-7--7---7-|-(7)--7---7-7--7--7--7---7--|| 


 Chorus 
  & 
  B 
  E E  E E  E E  E    E    W 
|---7--7----7-7---------|------------------------| 
|---7--7----7-7---------|------------------------| 
|-----------------------|------------------------| 
|--------9-------9\-----|------------------------| 
|-----------------------|------------------------| 
|-----------------------|------------------------| 
| 
| Q    q    q    E  a E   +Q     q    q    E a E 
|-----------------------|------------------------| 
|------9---10----9----7-|-(7)----9---10----9---7-| 
|------9---11----9--7h8-|-(8)----9---11----9-7h8-| 
|------9----9----9----7-|-(7)----9----9----9---7-| 
|-----------------------|------------------------| 
|-----------------------|------------------------| 
| 
| E E  E E  E E  E    E   +E  E  E E  E E  E   E 
|-----------------------|------------------------| 
|-----------------------|------------------------| 
|-----------------------|------------------------| 
|-----------------------|------------------------| 
|-9-9-11-9-12-9-11----9-|-(9)-9-11-9-12-9-11---9-| 
|-7-7--7-7--7-7--7----7-|-(7)-7--7-7--7-7--7---7-| 


   E   E  E  E  E  Q       E    E  E  E E  E E  E  E 
|----------------------------|-------------------------| 
|-----10-10-10-10-10\--------|--7s=5--5p4--4s2--2p=0---| 
|-----11-11-11-11-11\--------|--8s=6--6p4--4s2--2p=0---| 
|----------------------------|-------------------------| 
|----------------------------|-------------------------| 
|----------------------------|-------------------------| 
| 
| +Q      q     q      E a E   +Q     q    q    q 
|----------------------------|-------------------------| 
|-(7)-----9----10------9---7-|-(7)----9---10----9\-----| 
|-(8)-----9----11------9-7h8-|-(8)----9---11----9\-----| 
|-(7)-----9-----9------9---7-|-(7)----9----9----9\-----| 
|----------------------------|-------------------------| 
|----------------------------|-------------------------| 
| 
| +E   E  E  E  E  E   E   E   +E  E  E E  E E  E  E 
|----------------------------|-------------------------| 
|----------------------------|-------------------------| 
|----------------------------|-------------------------| 
|----------------------------|-------------------------| 
|-(9)--9-11--9-12--9--11---9-|-(9)-9-11-9-12-9-11--9---| 
|-(7)--7--7--7--7--7---7---7-|-(7)-7--7-7--7-7--7--7---| 


  B 
                     ~~~~~~~~~~~~ 
  E  E  E E  S E.    Q       +Q     Q    H 
|--------------------------|----------------------| 
|--------------------------|----------------------| 
|-------7-9----------------|----------------------| 
|---/9-------7p5-----6-----|-(6)------------------| 
|--------------------------|----------------------| 
|--------------------------|----------------------| 
| 
| Q     q    q       E a E   +Q     q    q    q 
|--------------------------|----------------------| 
|-------2----3-------2---0-|-(0)----2----3----2---| 
|-------2----4-------2-0h1-|-(1)----2----4----2---| 
|-------2----2-------2---0-|-(0)----2----2----2---| 
|--------------------------|----------------------| 
|--------------------------|----------------------| 
| 
| E  E  E E  E    E  E   E   +E  E  E E  E E  E E 
|--------------------------|----------------------| 
|--------------------------|----------------------| 
|--------------------------|----------------------| 
|-9--9-11-9-12----9-11---9-|-(9)-9-11-9-12-9-11---| 
|-7--7--7-7--7----7--7---7-|-(7)-7--7-7--7-7--7---| 
|--------------------------|--------------------0-| 


  B 
  E E     E E  E    E  Q        W 
|-----------7----------------|-------------------------| 
|---------7---------7--------|-------------------------| 
|---9b11-------9b11----------|-------------------------| 
|----------------------------|-------------------------| 
|----------------------------|-------------------------| 
|----------------------------|-------------------------| 
| 
| Q       q    q       E a E   +Q     q    q    q 
|----------------------------|-------------------------| 
|---------9---10-------9---7-|-(7)----9---10----9\-----| 
|---------9---11-------9-7h8-|-(8)----9---11----9\-----| 
|---------9----9-------9---7-|-(7)----9----9----9\-----| 
|----------------------------|-------------------------| 
|----------------------------|-------------------------| 
| 
| E E     E E  E    E  E   E   +E  E  E E  E E  E  E 
|----------------------------|-------------------------| 
|----------------------------|-------------------------| 
|----------------------------|-------------------------| 
|----------------------------|-------------------------| 
|-9-9----11-9-12----9-11---9-|-(9)-9-11-9-12-9-11\-4---| 
|-7-7-----7-7--7----7--7---7-|-(7)-7--7-7--7-7--7\-2---| 


  F# 
   E  E    E E E    E E   E   E    E Q   H 
|------------7--------7---7-|---------------------| 
|----------7--------7-------|------7--------------| 
|-----9b11-----9b11---------|-9b11----------------| 
|---------------------------|---------------------| 
|---------------------------|---------------------| 
|---------------------------|---------------------| 
| 
|  Q       q   q      E a E   Q      q   q   q 
|---------------------------|---------------------| 
|----------4---5------4---2-|-2------4---5---4----| 
|----------4---6------4-2h3-|-3------4---6---4----| 
|----------4---4------4---2-|-2------4---4---4----| 
|---------------------------|---------------------| 
|---------------------------|---------------------| 
| 
| +E  E    E E E    E E   E   E    E E E E E E E 
|---------------------------|---------------------| 
|---------------------------|---------------------| 
|---------------------------|---------------------| 
|---------------------------|---------------------| 
|-(4)-4----6-4-7----4-6---4-|-7----4-6-4-7-4-6-4/-| 
|-(2)-2----2-2-2----2-2---2-|-2----2-2-2-2-2-2-2/-| 


  B 
  E E  E E  E E  E   E    E   E   E a E  E S S E E 
|----------------------|----------------------------|| 
|------9-x-10-x--9---x-|-----------------------7-9--|| 
|------9-x-11-x--9---x-|--7h==8---9-7h8------8------|| 
|---9------------------|--7--(7)--9---7----9--------|| 
|----------------------|----------------------------|| 
|----------------------|----------------------------|| 
| 
| Q    q    q    E a E   +Q       q      q     Q 
|----------------------|----------------------------|| 
|------9---10----9---7-|-(7)------9-----10----------|| 
|------9---11----9-7h8-|-(8)------9-----11----------|| 
|------9----9----9---7-|-(7)------9------9----------|| 
|----------------------|----------------------------|| 
|----------------------|----------------------------|| 
| 
| E E  E E  E E  E   E   +E   E   E   E  E E   Q 
|----------------------|----------------------------|| 
|----------------------|----------------------------|| 
|----------------------|----------------------------|| 
|----------------------|----------------------------|| 
|-9-9-11-9-12-9-11---9-|-(9)--9--11---9-12-9--------|| 
|-7-7--7-7--7-7--7---7-|-(7)--7---7---7--7-7--------|| 


 Interlude 
  B7                    E9 
   E E E  E E E a E E    E S S E E a E E E E 
|-/7-7-7-/7-7---------|-/7-7-7-7---------7---| 
|-/7-7-7-/7-7-9---7---|-/7-7-7-7-9---7---7-9-| 
|-------------9-7h8---|----------9-7h8-----9-| 
|-------------------9-|----------------9-----| 
|---------------------|----------------------| 
|---------------------|----------------------| 
| 
|  W                     W 
|---------------------|----------------------| 
|---------------------|----------------------| 
|---------------------|----------------------| 
|---------------------|----------------------| 
|---------------------|----------------------| 
|---------------------|----------------------| 
| 
|  W                     W 
|--7------------------|--7-------------------| 
|--7------------------|--7-------------------| 
|--8------------------|--7-------------------| 
|--7------------------|--6-------------------| 
|--9------------------|--7-------------------| 
|--7------------------|----------------------| 


  B 
  E  E  E E  E E E E    E  E E E   E E E E 
|--------------------|----------------------|| 
|-7-(7)-9-x-10-x-9-x-|--7s=5-5p4---4s2-2p0--|| 
|-7h=8--9-x-11-x-9-x-|--8s=6-6p4---4s2-2p0--|| 
|--------------------|----------------------|| 
|--------------------|----------------------|| 
|--------------------|----------------------|| 
| 
| E  Q    E  Q   E E   +E  E E E a E E E E 
|--------------------|----------------------|| 
|--------------------|----------------------|| 
|--------------------|----------------------|| 
|----9-------7-----9-|-(9)---7-9------------|| 
|--------------------|-----------9s7p5-7-5--|| 
|-7-------7------7---|-----7----------------|| 
| 
| W                     W 
|--------------------|----------------------|| 
|--------------------|----------------------|| 
|--------------------|----------------------|| 
|--------------------|----------------------|| 
|--------------------|----------------------|| 
|--------------------|----------------------|| 


 Guitar Solo 
  E 
     ~~~~~      ~~~~~        ~~~~~~~~~~~~~~    ~~~~~ 
  E  Q       E  Q       E    E        +E    E  Q       q    a q 
|----------------------------------|------------------------------| 
|-----------10---------10----------|-------10---------10----------| 
|---12b14------12b14--------12b14==|=(12)r----12b14--------11s9---| 
|----------------------------------|------------------------------| 
|----------------------------------|------------------------------| 
|----------------------------------|------------------------------| 
| 
| Q       q     q       E a  E        +Q       q       q      q 
|----------------------------------|------------------------------| 
|---------2-----3-------2----0-----|--(0)------2-------3------2---| 
|---------2-----4-------2-0h=1-----|--(1)------2-------4------2---| 
|---------2-----2-------2----0-----|--(0)------2-------2------2---| 
|----------------------------------|------------------------------| 
|----------------------------------|------------------------------| 
| 
| E  Q       E  E    E  E    E        +E    Q       E  E E    E E 
|----------------------------------|------------------------------| 
|----------------------------------|------------------------------| 
|----------------------------------|------------------------------| 
|----2-----------------------------|------------------------------| 
|---------------5----2--4----2-----|--(2)---2----------5-2----4---| 
|-0----------0--0----0--0----0-----|--(0)-----------0--0-0----0-0-| 


  B 
  E  E   E E  E E  E   E    E   E   E E  Q    E   E 
|-------------7-x--------|-----------------------14---| 
|-7-(7)--9-x--7-x--9-----|--7--(7)--9-7---------------| 
|-7h=8---9-x-------9-----|--7h==8---9-7---------------| 
|----------------------9-|----------------------------| 
|------------------------|----------------------------| 
|------------------------|----------------------------| 
| 
| Q      q    q    E a E   +Q       q    q    q 
|------------------------|----------------------------| 
|--------9---10----9---7-|-(7)------9---10----9\------| 
|--------9---11----9-7h8-|-(8)------9---11----9\------| 
|--------9----9----9---7-|-(7)------9----9----9\------| 
|------------------------|----------------------------| 
|------------------------|----------------------------| 
| 
| E  E   E E  E E  E   E   +E   E   E E  E E  E   E 
|------------------------|----------------------------| 
|------------------------|----------------------------| 
|------------------------|----------------------------| 
|------------------------|----------------------------| 
|-9--9--11-9-12-9-11---9-|-(9)--9--11-9-12-9-11---0---| 
|-7--7---7-7--7-7--7---7-|-(7)--7---7-7--7-7--7-------| 


  F# 
   +E   E     E  E  E     E  E    E        E   Q        S S a  E  E  S S E 
|-(14)-------14-14-------14-14---------|--14--17b19-----x------------------| 
|------14b16-------14b16---------14b16-|------------------x----------------| 
|--------------------------------------|--------------------xs=9--7--9p7---| 
|--------------------------------------|---------------------------------9-| 
|--------------------------------------|-----------------------------------| 
|--------------------------------------|-----------------------------------| 
| 
|   Q         q     q        E a  E        Q         q         q     q 
|--------------------------------------|-----------------------------------| 
|-------------4-----5--------4----2----|---2---------4---------5-----4-----| 
|-------------4-----6--------4-2h=3----|---3---------4---------6-----4-----| 
|-------------4-----4--------4----2----|---2---------4---------4-----4-----| 
|--------------------------------------|-----------------------------------| 
|--------------------------------------|-----------------------------------| 
| 
|   E   E     E  E  E     E  E    E       +E   E     E  E      E  E  E   E 
|--------------------------------------|-----------------------------------| 
|--------------------------------------|-----------------------------------| 
|--------------------------------------|-----------------------------------| 
|--11--11----13-11-14----11-13---11----|-(11)-11----13-11-----14-11-13-----| 
|---9---9-----9--9--9-----9--9----9----|--(9)--9-----9--9------9--9--9-----| 
|--------------------------------------|---------------------------------0-| 


  B 
  E  E   E E  E E  E   E    E   E   E a E  E   E  E    E 
|------------------------|-------------------------------| 
|-7-(7)--9-x-10-x--9-----|--7--(7)--9---7----/10-10---10-| 
|-7h=8---9-x-11-x--9-----|--7h==8---9-7h8----/11-11---11-| 
|----------------------9-|-----------------9-------------| 
|------------------------|-------------------------------| 
|------------------------|-------------------------------| 
| 
| Q      q    q    E a E   +Q       q      q      E a  E 
|------------------------|-------------------------------| 
|--------9---10----9---7-|-(7)------9-----10------9----7-| 
|--------9---11----9-7h8-|-(8)------9-----11------9-7h=8-| 
|--------9----9----9---7-|-(7)------9------9------9----7-| 
|------------------------|-------------------------------| 
|------------------------|-------------------------------| 
| 
| E  E   E E  E E  E   E   +E   E   E   E  E   E  E    E 
|------------------------|-------------------------------| 
|------------------------|-------------------------------| 
|------------------------|-------------------------------| 
|------------------------|-------------------------------| 
|-9--9--11-9-12-9-11---9-|-(9)--9--11---9-12---9-11----9-| 
|-7--7---7-7--7-7--7---7-|-(7)--7---7---7--7---7--7----7-| 


  B 
                                    ~~~~~ 
    E  E  E   E  E  E  Q        E   Q        S  S  E E  E   E 
|----------------------------|--------------------------------| 
|-/10-10-10-/10-10-10-10-----|-----10-------10----------------| 
|-/11-11-11-/11-11-11-11-----|-----12b14-------11s=9-7--8-----| 
|----------------------------|------------------------------9-| 
|----------------------------|--------------------------------| 
|----------------------------|--------------------------------| 
| 
|   Q     q      q     E a E   +Q         q        q    E a E 
|----------------------------|--------------------------------| 
|---------9-----10-----9---7-|-(7)--------9-------10----9---7-| 
|---------9-----11-----9-7h8-|-(8)--------9-------11----9-7h8-| 
|---------9------9-----9---7-|-(7)--------9--------9----9---7-| 
|----------------------------|--------------------------------| 
|----------------------------|--------------------------------| 
| 
|   E  E  E   E  E  E  E   E   +E   E     E  E     E E  E   E 
|----------------------------|--------------------------------| 
|----------------------------|--------------------------------| 
|----------------------------|--------------------------------| 
|----------------------------|--------------------------------| 
|---9--9-11---9-12--9-11---9-|-(9)--9----11--9----12-9-11---9-| 
|---7--7--7---7--7--7--7---7-|-(7)--7-----7--7-----7-7--7---7-| 


                                           ~~~~~~~~~~~~ 
   E  E  E E  E  E     E   E    E    E  E  E      +E   E  E  E 
|----------7---------------7-|----------7--------------7--------| 
|--------x---10-10b12--------|-10b12------10b12==(10)r---10--7--| 
|--7--8----------------------|----------------------------------| 
|----------------------------|----------------------------------| 
|----------------------------|----------------------------------| 
|----------------------------|----------------------------------| 
| 
| +Q     q    q        E a E   +Q       q          q      q 
|----------------------------|----------------------------------| 
|-(7)----9---10--------9---7-|-(7)------9---------10------9\----| 
|-(8)----9---11--------9-7h8-|-(8)------9---------11------9\----| 
|-(7)----9----9--------9---7-|-(7)------9----------9------9\----| 
|----------------------------|----------------------------------| 
|----------------------------|----------------------------------| 
| 
| +E  E  E E  E  E     E   E   +E    E  E  E       E   E  E  E 
|----------------------------|----------------------------------| 
|----------------------------|----------------------------------| 
|----------------------------|----------------------------------| 
|----------------------------|----------------------------------| 
|-(9)-9-11-9-12--9----11---9-|-(9)---9-11--9------12---9-11--x--| 
|-(7)-7--7-7--7--7-----7---7-|-(7)---7--7--7-------7---7--7--x--| 


  E 
   E    E  S S  S S  S S  E    E   E    S  S E E E  E E E a E 
|-------7------10p7-10p7-------------|------------------------| 
|-10b12---10p7-----------10b12-----7-|---------9-x-10-x-9-----| 
|------------------------------------|--9p=7---9-x-11-x-9-7h8-| 
|------------------------------------|-------9----------------| 
|------------------------------------|------------------------| 
|------------------------------------|------------------------| 
| 
|  Q       q         q         E a E   +Q      q    q   q 
|------------------------------------|------------------------| 
|----------2---------3---------2---0-|-(0)-----2----3---2-----| 
|----------2---------4---------2-0h1-|-(1)-----2----4---2-----| 
|----------2---------2---------2---0-|-(0)-----2----2---2-----| 
|------------------------------------|------------------------| 
|------------------------------------|------------------------| 
| 
|  E    E  E    E    E    E    E   E   +E    E E E  E E E   E 
|------------------------------------|------------------------| 
|------------------------------------|------------------------| 
|------------------------------------|------------------------| 
|------------------------------------|------------------------| 
|--2----2--4----2----5----2----4---2-|-(2)---2-4-2--5-2-4---2-| 
|--0----0--0----0----0----0----0---0-|-(0)---0-0-0--0-0-0---0-| 


  B 
                                            ~~~~~~ 
  E Q    E  Q    E a E   +E  Q    E  E   E  E   E 
|---7-------7----------|-----7-------7/-14-14--14-| 
|---7-------7----9-----|-----7-------7/-15-15--15-| 
|------------------7h8-|-(8)----------------------| 
|-9------9-------------|----------9---------------| 
|----------------------|--------------------------| 
|----------------------|--------------------------| 
| 
| Q    q    q    E a E   +Q     q    q      q 
|----------------------|--------------------------| 
|------9---10----9---7-|-(7)----9---10------9\----| 
|------9---11----9-7h8-|-(8)----9---11------9\----| 
|------9----9----9---7-|-(7)----9----9------9\----| 
|----------------------|--------------------------| 
|----------------------|--------------------------| 
| 
| E E  E E  E E  E   E   +E  E  E E  E   E  E   E 
|----------------------|--------------------------| 
|----------------------|--------------------------| 
|----------------------|--------------------------| 
|----------------------|--------------------------| 
|-9-9-11-9-12-9-11---9-|-(9)-9-11-9-12---9-11\--4-| 
|-7-7--7-7--7-7--7---7-|-(7)-7--7-7--7---7--7\--2-| 


  F# 
    ~~~~   ~~~~~~~~~~ 
   +E   E  E  E  +E   E  E    E 
|-(14)-14-14-14-(14)-14-14---14-| 
|-(15)-15-15-15-(15)-15-15---15-| 
|-------------------------------| 
|-------------------------------| 
|-------------------------------| 
|-------------------------------| 
| 
|   Q      q      q      E a  E 
|-------------------------------| 
|----------4------5------4----2-| 
|----------4------6------4-2h=3-| 
|----------4------4------4----2-| 
|-------------------------------| 
|-------------------------------| 
| 
|   E   E  E  E   E   E  E    E 
|-------------------------------| 
|-------------------------------| 
|-------------------------------| 
|--11--11-13-11--14--11-13---11-| 
|---9---9--9--9---9---9--9----9-| 
|-------------------------------| 


                             B 
    E   E  E  E  E  E  E E   E E  E E  E    E  E    E 
|--14s=12-12s10-10s=9--9---|-7-9-10-7----------7---------| 
|--15s=14-14s12-12s10-10---|-7-9-10-7--9b10-9------10b12-| 
|--------------------------|-----------------------------| 
|--------------------------|-----------------------------| 
|--------------------------|-----------------------------| 
|--------------------------|-----------------------------| 
| 
|   Q      q     q     q     Q    q    q       E a  E 
|--------------------------|-----------------------------| 
|---2------4-----5-----4---|------9---10-------9----7----| 
|---3------4-----6-----4---|------9---11-------9-7h=8----| 
|---2------4-----4-----4---|------9----9-------9----7----| 
|--------------------------|-----------------------------| 
|--------------------------|-----------------------------| 
| 
|  +E   E  E  E  E  E  E E   E E  E E  E    E  E    E 
|--------------------------|-----------------------------| 
|--------------------------|-----------------------------| 
|--------------------------|-----------------------------| 
|-(11)-11-13-11-14-11-13---|-----------------------------| 
|--(9)--9--9--9--9--9--9---|-9-9-11-9-12----9-11----9----| 
|------------------------0-|-7-7--7-7--7----7--7----7----| 


        D.S.S. al Dbl. Coda && 
                               B 
   E  E  E E  E E  E    E      E E     E E  E    E  E   E 
|--7------------------------||-----------7-------7-----------| 
|-------10-x--9-x--7---(7)--||---------7---10b12----9--------| 
|-----x-11-x--9-x--7h===8---||---9b11-------------------9b11-| 
|---------------------------||-------------------------------| 
|---------------------------||-------------------------------| 
|---------------------------||-------------------------------| 
| 
|  Q     q    q    E a  E      Q       q    q       E a E 
|---------------------------||-------------------------------| 
|--7-----9---10----9----7---||---------9---10-------9---7----| 
|--8-----9---11----9-7h=8---||---------9---11-------9-7h8----| 
|--7-----9----9----9----7---||---------9----9-------9---7----| 
|---------------------------||-------------------------------| 
|---------------------------||-------------------------------| 
| 
| +E  E  E E  E E  E    E      E E     E E  E    E  E   E 
|---------------------------||-------------------------------| 
|---------------------------||-------------------------------| 
|---------------------------||-------------------------------| 
|---------------------------||-------------------------------| 
|-(9)-9-11-9-12-9-11----9---||-9-9----11-9-12----9-11---9----| 
|-(7)-7--7-7--7-7--7----7---||-7-7-----7-7--7----7--7---7----| 


   S  S E  E E  E  E  Q 
|----------------------------|| 
|----------9-----------------|| 
|--9p=7----9-7h=8------------|| 
|-------9----7-(7)-9---------|| 
|----------------------------|| 
|----------------------------|| 
| 
| +Q       q    q     E a E 
|----------------------------|| 
|-(7)------9---10-----9---7--|| 
|-(8)------9---11-----9-7h8--|| 
|-(7)------9----9-----9---7--|| 
|----------------------------|| 
|----------------------------|| 
| 
| +E    E  E E  E  E  E   E 
|----------------------------|| 
|----------------------------|| 
|----------------------------|| 
|----------------------------|| 
|-(9)---9-11-9-12--9-11---9--|| 
|-(7)---7--7-7--7--7--7---7--|| 


 Out-Chorus 
  B 
  E E  E  E  E  Q       E    W 
|-------------------------|------------------------| 
|---7----10-10-12\--------|------------------------| 
|---7----11-11-11\--------|------------------------| 
|-------------------------|------------------------| 
|-------------------------|------------------------| 
|-------------------------|------------------------| 
| 
| Q    q     q      E a E   +Q     q    q    E a E 
|-------------------------|------------------------| 
|------9----10------9---7-|-(7)----9---10----9---7-| 
|------9----11------9-7h8-|-(8)----9---11----9-7h8-| 
|------9-----9------9---7-|-(7)----9----9----9---7-| 
|-------------------------|------------------------| 
|-------------------------|------------------------| 
| 
| E E  E  E  E  E   E   E   +E  E  E E  E E  E   E 
|-------------------------|------------------------| 
|-------------------------|------------------------| 
|-------------------------|------------------------| 
|-------------------------|------------------------| 
|-9-9-11--9-12--9--11---9-|-(9)-9-11-9-12-9-11---9-| 
|-7-7--7--7--7--7---7---7-|-(7)-7--7-7--7-7--7---7-| 


   E  E     E E  E    E  E   E    W 
|-------------7----------7-----|-------------------------| 
|-----------7---------7--------|-------------------------| 
|-----9b11-------9b11----------|-------------------------| 
|------------------------------|-------------------------| 
|------------------------------|-------------------------| 
|------------------------------|-------------------------| 
| 
| +Q        q    q       E a E   +Q     q    q    q 
|------------------------------|-------------------------| 
|-(7)-------9---10-------9---7-|-(7)----9---10----9\-----| 
|-(8)-------9---11-------9-7h8-|-(8)----9---11----9\-----| 
|-(7)-------9----9-------9---7-|-(7)----9----9----9\-----| 
|------------------------------|-------------------------| 
|------------------------------|-------------------------| 
| 
| +E  E     E E  E    E  E   E   +E  E  E E  E E  E  E 
|------------------------------|-------------------------| 
|------------------------------|-------------------------| 
|------------------------------|-------------------------| 
|------------------------------|-------------------------| 
|-(9)-9----11-9-12----9-11---9-|-(9)-9-11-9-12-9-11--x---| 
|-(7)-7-----7-7--7----7--7---7-|-(7)-7--7-7--7-7--7--x---| 


  E                                             B 
    ~       ~~ 
  E Q    E  Q    E   E    W                     E E     E E  E    E  Q 
|----------------------|----------------------|---------7---------7--------| 
|--------7-------7-----|----------------------|-----------7-10b12----------| 
|---7-------7----------|----------------------|---9b11---------------------| 
|----------------------|----------------------|----------------------------| 
|----------------------|----------------------|----------------------------| 
|----------------------|----------------------|----------------------------| 
| 
| Q    q    q    E a E   +Q     q    q    q     Q       q    q       E a E 
|----------------------|----------------------|----------------------------| 
|------2----3----2---0-|-(0)----2----3----2---|---------9---10-------9---7-| 
|------2----4----2-0h1-|-(1)----2----4----2---|---------9---11-------9-7h8-| 
|------2----2----2---0-|-(0)----2----2----2---|---------9----9-------9---7-| 
|----------------------|----------------------|----------------------------| 
|----------------------|----------------------|----------------------------| 
| 
| E E  E E  E E  E   E   +E  E  E E  E E  E E   E E     E E  E    E  E   E 
|----------------------|----------------------|----------------------------| 
|----------------------|----------------------|----------------------------| 
|----------------------|----------------------|----------------------------| 
|-9-9-11-9-12-9-11---9-|-(9)-9-11-9-12-9-11---|----------------------------| 
|-7-7--7-7--7-7--7---7-|-(7)-7--7-7--7-7--7---|-9-9----11-9-12----9-11---9-| 
|----------------------|--------------------0-|-7-7-----7-7--7----7--7---7-| 


                          F# 
   W                       E  E    E E E    E E   E   E    E Q   H 
|-----------------------|------------7--------7---7-|----------------------| 
|-----------------------|----------7--------7-------|------7---------------| 
|-----------------------|-----9b11-----9b11---------|-9b11-----------------| 
|-----------------------|---------------------------|----------------------| 
|-----------------------|---------------------------|----------------------| 
|-----------------------|---------------------------|----------------------| 
| 
| +Q     q    q    q       Q       q   q      E a E   Q      q   q   q 
|-----------------------|---------------------------|----------------------| 
|-(7)----9---10----9\---|----------4---5------4---2-|-2------4---5---4-----| 
|-(8)----9---11----9\---|----------4---6------4-2h3-|-3------4---6---4-----| 
|-(7)----9----9----9\---|----------4---4------4---2-|-2------4---4---4-----| 
|-----------------------|---------------------------|----------------------| 
|-----------------------|---------------------------|----------------------| 
| 
| +E  E  E E  E E  E  E   +E  E    E E E    E E   E   E    E E E E E E E 
|-----------------------|---------------------------|----------------------| 
|-----------------------|---------------------------|----------------------| 
|-----------------------|---------------------------|----------------------| 
|-----------------------|---------------------------|----------------------| 
|-(9)-9-11-9-12-9-11\-4-|-(4)-4----6-4-7----4-6---4-|-7----4-6-4-7-4-6-4/--| 
|-(7)-7--7-7--7-7--7\-2-|-(2)-2----2-2-2----2-2---2-|-2----2-2-2-2-2-2-2/--| 


  N.C.                        B7 
  E E  E E E E  E E   E  E  E E +H       +W 
|-7-7------7-7--9---|-7----------------|--------*| 
|-7-7--9---7-7--9---|-7----/9-7-(7)----|-(7)----*| 
|------9-8------9-8-|------/8-6-(6)----|-(6)----*| 
|-------------------|------/9-7-(7)----|-(7)----*| 
|-------------------|------------------|--------*| 
|-------------------|------------------|--------*| 
| 
| E Q.     Q    E E   Q     E E +H       +W 
|-------------------|---------7-(7)----|-(7)----*| 
|-------------------|---------7-(7)----|-(7)----*| 
|-------------------|---------8-(8)----|-(8)----*| 
|---9------7------7-|---------7-(7)----|-(7)----*| 
|--------------/9---|---------9-(9)----|-(9)----*| 
|-7-----------------|---------7-(7)----|-(7)----*| 
| 
| E E  E E E E  E E   E  E  E E +H       +W 
|-------------------|---------7-(7)----|-(7)----*| 
|-------------------|---------7-(7)----|-(7)----*| 
|-------------------|---------8-(8)----|-(8)----*| 
|-------------------|---------7-(7)----|-(7)----*| 
|------6-6-7-7--8-8-|-9-------9-(9)----|-(9)----*| 
|-7-7---------------|---10--7-7-(7)----|-(7)----*| 
 
	  

No existe una video leccione para esta canción

request
Aumentar uno tonoAumentar uno tono
Aumentar uno semi-tonoAumentar uno semi-tono
Disminuir uno semi-tonoDisminuir uno semi-tono
Disminuir uno tonoDisminuir uno semi-tono
LosAcordes
Buscar
auto avanzar rasgueos aumentar disminuir cambiar color esconder acordes gráficos
losacordes exhibir acordes losacordes youTube video losacordes ocultar tabs losacordes ir hacia arriba losacordes