Johnny Cash

Início > Johnny Cas... > acordes

Get Rhythm solo/movie version Tablatura

Johnny Cash

Dificultad:PrincipiantePrincipiante

wompum

tuner correct add songbook print version text version salvar en e-mail
acordesukuleletablaturabajobateríaarmónicaflautacavacopiano Guitar Pro
acordes

Get Rhythm solo/movie version

	  This is the solo for Get Rhythm from the movie Walk the Line. 
 
e|---------12----------12-----------12-------12------------------| 
B|-------------12----------12----------12-------12---------------| 
G|-----------------13---------------------13---------------------| 
D|-----14-----------------------14-------------------------------| 
A|---------------------------------------------------------------| 
E|---------------------------------------------------------------| 
 
e|--------12--------12-----------12-------12---------------------| 
B|-----------12---------12----------12--------12-----------------| 
G|--------------13---------------------13------------------------| 
D|----14---------------------14----------------------------------| 
A|---------------------------------------------------------------| 
E|---------------------------------------------------------------| 
 
e|-------5------5--------5--------5--------5--------5------------| 
B|---------5------5---------5-------5---------5--------5---------| 
G|-----------6-----------------6-----------------6---------------| 
D|----7---------------7-----------------7------------------------| 
A|---------------------------------------------------------------| 
E|---------------------------------------------------------------| 
 
e|-----5-------5-------------------------------------------------| 
B|-------5-------5-----------------------------------------------| 
G|---------6-----------------------------------------------------| 
D|--7------------------0--2------2-2-----2-2----2-2-4-2-4-2-4-2-4| 
A|-----------------------------4------4-------4------------------| 
E|---------------------------------------------------------------| 
 
e|---------------------------------------------------------------| 
B|---------------------------------------------------------------| 
G|------0--------------------------------------------------------| 
D|-2-4----4--2---------------------------------------------------| 
A|-----------------4--2------------------------------------------| 
E|------------------------4---0----------------------------------| 
 
 
| /  slide up 
| \  slide down 
| h  hammer-on 
| p  pull-off 
| ~  vibrato 
| +  harmonic 
| x  Mute note 
 

	  

No existe una video leccione para esta canción

request
LosAcordes
Buscar
auto avanzar rasgueos aumentar disminuir cambiar color esconder acordes gráficos
losacordes exhibir acordes losacordes youTube video losacordes ocultar tabs losacordes ir hacia arriba losacordes