John Williams

Início > John Willi... > acordes

Harry Potter Tablatura

John Williams

Dificultad:IntermedioIntermedio

garota_malefica

tuner correct add songbook print version text version salvar en e-mail
acordesukuleletablaturabajobateríaarmónicaflautacavacopiano Guitar Pro
acordes

Harry Potter

	  Essa é a tablatura do tema do filme do Harry Potter... 
Não é tão difícil assim... 
 
E-----5-----9-7-----5-------------- 
B---7---9-7-----9-7---9-5-9-------- 
G-6-------------------------6------ 
D---------------------------------- 
A---------------------------------- 
E---------------------------------- 
 
E-----5-----9-12-11-10-8-9-7-5----- 
B---7---9-7------------------------ 
G-6-------------------------------- 
D---------------------------------- 
A---------------------------------- 
E---------------------------------- 
 
E----------9----9----10-9-8-------- 
B-5-9-7-10---10---10--------------- 
G---------------------------------- 
D---------------------------------- 
A---------------------------------- 
E---------------------------------- 
 
E----9-8-7-------9----------------- 
B-10------------------------------- 
G---------------------------------- 
D----------10-10------------------- 
A---------------------------------- 
E---------------------------------- 
 
E----9----9----12-11-10----9-7-5-------- 
B-10---10---10----------10-------5-9-7-- 
G--------------------------------------- 
D--------------------------------------- 
A--------------------------------------- 
E--------------------------------------- 

	  

No existe una video leccione para esta canción

request
LosAcordes
Buscar
auto avanzar rasgueos aumentar disminuir cambiar color esconder acordes gráficos
losacordes exhibir acordes losacordes youTube video losacordes ocultar tabs losacordes ir hacia arriba losacordes