Johan Sebastian Bach

Início > Johan Seba... > acordes

Solfeggieto Tablatura

Johan Sebastian Bach

Dificultad:Ningún gradoNingún grado

Vallim guitar

tuner correct add songbook print version text version salvar en e-mail
acordesukuleletablaturabajobateríaarmónicaflautacavacopiano Guitar Pro
acordes

Solfeggieto

	   SOLFEGGIETTO  
 
 
Esse som é show,mas requer um estudo de palheta bem aplicado. 
Transcrito por Júlio Vallim. 
 
 
 
  
 
  
 
 
  S S S S S S S S S S S S S S S S   S S S S S S S S S S S S S S S S 
|-------------------------0-------|-------0-5-8-7-5-7-5-4-2----------| 
|-----------1-0---------0---3-1-0-|-1---1-------------------5-3-1-0--| 
|---------2-----2-1---1-----------|---2------------------------------| 
|-------2-----------2-------------|----------------------------------| 
|-3-0-3---------------------------|----------------------------------| 
|---------------------------------|----------------------------------| 
 
 
  S S S S S S S S S S S S  S  S S S 
|-------0-5-8-7-5-4---4-7-12-10-8-7-| 
|-1---1-------------5---------------| 
|---2-------------------------------| 
|-----------------------------------| 
|-----------------------------------| 
|-----------------------------------| 
 
 
  S  S S  S  S  S  S  S  S  S  S  S  S  S S S 
|-8----8-12-17-20-19-17-19-17-16-14-12-10-8-7-| 
|---10----------------------------------------| 
|---------------------------------------------| 
|---------------------------------------------| 
|---------------------------------------------| 
|---------------------------------------------| 
 
 
  S  S S  S  S  S  S  S  S S S S S S S S 
|-8------------17------------------1-5-8-| 
|---10------------17----18-------3-------| 
|------9-------------17--------2---------| 
|--------10----------------0-3-----------| 
|-----------12---------------------------| 
|----------------------------------------| 
 
 
  S S S S  S  S  S  S  S S S S S S S S 
|-7----------15------------------0-3-7-| 
|---8-----------15----17-------1-------| 
|-----7------------16--------0---------| 
|-------9------------------2-----------| 
|---------10-------------3-------------| 
|--------------------------------------| 
 
 
  S S S S S S S S S  S S S S  S S S   S S S S  S  S  S  S  S  S S S S S S S 
|-5-------5-------8--------8--------|-7-5---2-14----------11--------5-------| 
|---7-6-7---7-6-7---10---7---10---7-|-----4------12----------10---7---7-----| 
|----------------------9--------9---|------------------11---------------8---| 
|-----------------------------------|---------------13----------9---------9-| 
|-----------------------------------|---------------------------------------| 
|-----------------------------------|---------------------------------------| 
 
 
  S S S S S S S S S S S S S S S S   S S S S S S S S S S S S S S S S 
|---------------------------------|-----------3-2-------------------| 
|---------------------------------|---------5-----5-7-5-4-2---------| 
|-----------0-------------4-2-0---|-------4-----------------4-2-0---| 
|---------2---4-2-1---1-4-------4-|-5---5-------------------------4-| 
|-------2-----------2-------------|---7-----------------------------| 
|-3-0-3---------------------------|---------------------------------| 
 
 
  S S S S S S S S S S S S S S S S   S S S S  S  S  S  S  S  S  S S S S S S 
|-----------3-2---------2-7-5-3-2-|-3---3-7-12-15-14-12-14-12-11-9-7-5-3-2-| 
|---------5-----5-4---4-----------|---5------------------------------------| 
|-------4-----------4-------------|----------------------------------------| 
|-5---5---------------------------|----------------------------------------| 
|---7-----------------------------|----------------------------------------| 
|---------------------------------|----------------------------------------| 
 
 
  S S S S  S  S  S  S  S  S  S  S  S  S  S  S 
|-----3-7-12-------------12----------------12-| 
|---5--------12-------------12----------12----| 
|---------------12-------------13----13-------| 
|-2----------------14-------------14----------| 
|---------------------------------------------| 
|---------------------10----------------------| 
 
 
   S S  S S  S S  S S S S S S S S S S 
|-------------------------------------| 
|------10--------10-------9-------9---| 
|----9----9----9----9---9---9---9---9-| 
|-10--------10--------9-------9-------| 
|-------------------------------------| 
|-------------------------------------| 
 
 
  S S S  S  S  S  S  S  S  S  S  S  S  S  S  S 
|---5-8-12-17-------------17----------------17-| 
|-------------17-------------17----------17----| 
|----------------17-------------18----18-------| 
|-7-----------------19-17----------19----------| 
|----------------------------------------------| 
|----------------------------------------------| 
 
 
   S  S  S  S  S  S  S  S  S  S  S  S  S  S  E 
|----------------------------------------------| 
|-------15----------15----------14----------14-| 
|----14----14----14----14----14----14----14----| 
|-15----------15----------14----------14-------| 
|----------------------------------------------| 
|----------------------------------------------| 
 
 
   S  S S S S S S S S S S S S S S S   S S S S  S  S  S  S  S  S S S S S S S 
|---------------------------5-3-1-0-|-1---1-5-10-13-12-10-12-10-9-7-5-3-1-0-| 
|-------------6-5-3-2---2-5---------|---3-----------------------------------| 
|-----------7---------2-------------|---------------------------------------| 
|---------7-------------------------|---------------------------------------| 
|-------8---------------------------|---------------------------------------| 
|-13-10-----------------------------|---------------------------------------| 
 
 
  S S S S S S S S S S S S S S S S   S S S S  S  S  S  S  S  S S S S S S S 
|-----------1-0-----------5-3-1-0-|-1---1-5-10-13-12-10-12-10-9-7-5-3-1-0-| 
|---------3-----3-2---2-5---------|---3-----------------------------------| 
|-------2-----------2-------------|---------------------------------------| 
|-3---3---------------------------|---------------------------------------| 
|---5-----------------------------|---------------------------------------| 
|---------------------------------|---------------------------------------| 
 
 
  S  S  S  S  S  S  S  S  S  S  S  S  S  S  S  S 
|-1-10-------------------------------------------| 
|------10-------10-------------------------------| 
|---------10-------10-------10-------------------| 
|------------12-------12-------12-------12-------| 
|------------------------12-------12-------12----| 
|------------------------------------13-------13-| 
 
 
  H     S  S  S  S  S  S  S  S 
|------13----------------------| 
|---------15-14-15-17-15-14-15-| 
|------------------------------| 
|------------------------------| 
|-1----------------------------| 
|------------------------------| 
 
 
  H     S  S  S  S  S  S  S  S   H    S S S S S S S S 
|------------------------------|------7---------------| 
|------------------------------|----------5-6-5-3-1-0-| 
|------------------------------|--------7-------------| 
|------15----------------------|----------------------| 
|-0-------17-16-17-19-17-16-17-|----------------------| 
|------------------------------|-4--------------------| 
 
 
                               Q=160 
  S S S S S S S S Q  S S S S   S S  S  S  S  S  S  S  S  S  S  S  S  S  S  S 
|---0-5---3-1-0--------------|-5-8-12----------12----------10----------10-----| 
|-1-----5-------3-1--0-1-----|--------13----13----13----12----12----12----12--| 
|----------------------4-2-4-|-----------14----------13----------13-----------| 
|----------------------------|------------------------------------------------| 
|----------------------------|------------------------------------------------| 
|----------------------------|------------------------------------------------| 
 
 
   S  S S  S S  S S  S S  S  S  S  S  S  S  S 
|-------9---------9----8-14-17----------17----| 
|----10---10-8-10---10---------19----19----19-| 
|-12------------------------------17----------| 
|---------------------------------------------| 
|---------------------------------------------| 
|---------------------------------------------| 
 
 
   S  S  S  S  S  S  S  S  S  S  S  S  S  S  S  S 
|-------------------------------------------------| 
|-------------------------------20----------20----| 
|----------------------------21----21----21----21-| 
|-------21----------21----20----------20----------| 
|-20-22----22-20-22----22-------------------------| 
|-------------------------------------------------| 
 
 
   S  S  S  S  S  S  S  S  S  S  S  S  S  S  S  S 
|-------------------------------------------------| 
|-------------------------------------------------| 
|-------------------------------14----------14----| 
|-------19----------19-------16----16----16----16-| 
|----20----20-18-20----20-18----------18----------| 
|-23----------------------------------------------| 
 
 
   S  S  S  S  S  S  S  S  S  S  S  S  S  S  S  S 
|-------------17----------------------------------| 
|----------17----17-------17----------------------| 
|-------17----------17-------17-------19----------| 
|----19----------------19-------19-------21-------| 
|----------------------------------19-------23----| 
|-17-------------------------------------------24-| 
 
 
  S S S S S S S S S S S S S S S S   S S S S S S S S S S S S S S S S 
|-------------------------0-------|-------0-5-8-7-5-7-5-4-2---------| 
|-----------1-0---------0---3-1-0-|-1---1-------------------5-3-1-0-| 
|---------2-----2-1---1-----------|---2-----------------------------| 
|-------2-----------2-------------|---------------------------------| 
|-3-0-3---------------------------|---------------------------------| 
|---------------------------------|---------------------------------| 
 
 
  S S S S S S S S S S S S  S  S S S 
|-------0-5-8-7-5-4---4-7-12-10-8-7-| 
|-1---1-------------5---------------| 
|---2-------------------------------| 
|-----------------------------------| 
|-----------------------------------| 
|-----------------------------------| 
 
 
  Q=Q=1Q=Q=1Q=1Q=1Q=1Q=1Q=1Q=9Q=9Q=8Q=7Q=7Q=66 
  S  S S  S  S  S  S  S  S  S  S  S  S  S  S  S 
|-8----8-12-17-20-19----------------------------| 
|---10---------------21-22----------------------| 
|--------------------------21-------------------| 
|-----------------------------22-21-19----------| 
|--------------------------------------19-------| 
|-----------------------------------------20-19-| 
 
 
  Q=60 
   Q  Q  H 
|-------------*| 
|-------------*| 
|-------------*| 
|-------------*| 
|-------------*| 
|-17----------*| 
 

	  

No existe una video leccione para esta canción

request
Aumentar uno tonoAumentar uno tono
Aumentar uno semi-tonoAumentar uno semi-tono
Disminuir uno semi-tonoDisminuir uno semi-tono
Disminuir uno tonoDisminuir uno semi-tono
LosAcordes
Buscar
auto avanzar rasgueos aumentar disminuir cambiar color esconder acordes gráficos
losacordes exhibir acordes losacordes youTube video losacordes ocultar tabs losacordes ir hacia arriba losacordes