João Pedro e Cristiano

Início > João Pedro... > acordes

Por Toda Vida Tablatura

João Pedro e Cristiano

Dificultad:FácilFácil

Giovanni.Marçal

tuner correct add songbook print version text version salvar en e-mail
acordesukuleletablaturabajobateríaarmónicaflautacavacopiano Guitar Pro
acordes

Por Toda Vida

	  Solo da introdução: 

A Base é G D C D  G D C D 

e|--------------------------------------| 
B|----8-8-----8-8----/10-10----/10-10---| 
G|-/7------/7------7---------7--------7-| 
D|--------------------------------------| 
A|--------------------------------------| 
E|--------------------------------------| 

e|----7-8-7----------/7-7h8-7------| 
B|-10-------10-8--------------8/10-| 
G|----------------9----------------| 
D|---------------------------------| 
A|---------------------------------| 
E|---------------------------------| 

e|--------------------------------------| 
B|----8-8-----8-8----/10-10----/10-10---| 
G|-/7------/7------7---------7--------7-| 
D|--------------------------------------| 
A|--------------------------------------| 
E|--------------------------------------| 

e|-8-10-12-10-8-7-----------10/12-10-8-8/10--8-7-5-| 
B|-----------------8/10-8--------------------------| 
G|--------------------------10/12-10-9-9/10--9-7-5-| 
D|-------------------------------------------------| 
A|-------------------------------------------------| 
E|-------------------------------------------------| 

E este é o solo que tem no final da música: 
Base: G  C  G  C  G  C 

e|-3--/3-5-7-7/8---8-7-5-3-| 
B|-------------------------| 
G|-4--/4-5-7-7/9---9-7-5-4-| 
D|-------------------------| 
A|-------------------------| 
E|-------------------------| Repete até o fim... 

Enviada por Giovanni.Marçal 

	  

No existe una video leccione para esta canción

request
Aumentar uno tonoAumentar uno tono
Aumentar uno semi-tonoAumentar uno semi-tono
Disminuir uno semi-tonoDisminuir uno semi-tono
Disminuir uno tonoDisminuir uno semi-tono
LosAcordes
Buscar
auto avanzar rasgueos aumentar disminuir cambiar color esconder acordes gráficos
losacordes exhibir acordes losacordes youTube video losacordes ocultar tabs losacordes ir hacia arriba losacordes