Jason Mraz

Início > Jason Mraz > acordes

I'm Yours (acoustic) Tablatura

Jason Mraz

Dificultad:PrincipiantePrincipiante

tuner correct add songbook print version text version salvar en e-mail
acordesukuleletablaturabajobateríaarmónicaflautacavacopiano Guitar Pro
acordes

I'm Yours (acoustic)

	  http://youtube.com/watch?v=eujAKmx3oGw  

Guitar   

Standard Tuning  

keys  

~ vibrato  
h hammer  
/ slide  


Intro  
E|-7/9-7---7/9-6---7/9-------------7/9-7---7/9-6---7/9-----------| 
B|-7/9-7---7/9-7---7/9-9-----------7/9-7---7/9-7---7/9-9---9-9---| 
G|---------------------8---8/9-------------------------8---8-8/9-| 
D|-----------------------------9~--------------------------------| 
A|---------------------------------------------------------------| 
E|---------------------------------------------------------------| 

abaixo esta errado nao combina. ass:misael acima esta correto. 

Verse  
e|-00-00-00-00---00-00-00-00---22-22-22-22---00-00-00-00--------|  
B|-22-22-22-22---00-00-00-00---22-22-22-22---33-33-33-33--------|  
G|-22-22-22-22---11-11-11-11---22-22-22-22---22-22-22-22--------| x2  
D|-22-22-22-22---22-22-22-22---44-44-44-44---00-00-00-00--------|  
A|-00-00-00-00---22-22-22-22---44-44-44-44----------------------|  
E|---------------00-00-00-00---22-22-22-22----------------------|  

Chorus 1  
e|-00-00-00-00-0---00-00-00-00-0---22-22-22-22---00-00-00-00-----|  
B|-55-55-55-55-5---55-55-55-55-5---22-22-22-22---33-33-33-33-----|  
G|-66-66-66-66-6---44-44-44-44-4---22-22-22-22---22-22-22-22-----|  
D|-77-77-77-77-7---66-66-66-66-6---44-44-44-44---00-00-00-00-----|  
A|---------------------------------------------------------------|  
E|---------------------------------------------------------------|  

-0-----00-00-00-00-0-----00-00-00-00-0-----22-22-22-22---00-00-00-00---------|  
-5h7---55-55-55-55-5h7---55-55-55-55-5h7---22-22-22-22---33-33-33-33---------|  
-6-----66-66-66-66-6-----44-44-44-44-4-----22-22-22-22---22-22-22-22--00-----|  
-7-----77-77-77-77-7-----66-66-66-66-6-----44-44-44-44---00-00-00-00--00-----|  
----------------------------------------------------------------------00-----|  
-----------------------------------------------------------------------------|  

Verse 2  

e|-00-00-00-00---00-00-00-00---22-22-22-22---00-00-00-00-----|  
B|-22-22-22-22---00-00-00-00---22-22-22-22---33-33-33-33-----|  
G|-22-22-22-22---11-11-11-11---22-22-22-22---22-22-22-22-----|  
D|-22-22-22-22---22-22-22-22---44-44-44-44---00-00-00-00-----|  
A|-00-00-00-00---22-22-22-22---44-44-44-44-------------------|  
E|---------------00-00-00-00---22-22-22-22-------------------|  

-00-00-00-00---00-00-00-00---22-22-22-22---00-00-00-00---0000~-----|  
-22-22-22-22---00-00-00-00---22-22-22-22---33-33-33-33---0000~-----|  
-22-22-22-22---11-11-11-11---22-22-22-22---22-22-22-22---2222~-----|  
-22-22-22-22---22-22-22-22---44-44-44-44---00-00-00-00---1111~-----|  
-00-00-00-00---22-22-22-22---44-44-44-44-----------------2222~-----|  
---------------00-00-00-00---22-22-22-22-----------------0000~-----|  

Chorus 2  
e|-00-00-00-00-0---00-00-00-00-0---22-22-22-22---00-00-00-00----|  
B|-55-55-55-55-5---55-55-55-55-5---22-22-22-22---33-33-33-33----|  
G|-66-66-66-66-6---44-44-44-44-4---22-22-22-22---22-22-22-22----| x2  
D|-77-77-77-77-7---66-66-66-66-6---44-44-44-44---00-00-00-00----|  
A|--------------------------------------------------------------|  
E|--------------------------------------------------------------|  

-0-----000--000-222-000--0000-0000--|  
-5h7---555--555-222-000--3333-0000--|  
-6-----666--444-222-111--2222-2222--|  
-7-----777--666-444-222--0000-1111--|  
------------------------------2222--|  
------------------------------0000--|  

-0-----000--000-222-000--0000--------------------|  
-5h7---555--555-222-000--3333----9-9-9-9-12~-----|  
-6-----666--444-222-111--2222---10101010-10~-----|  
-7-----777--666-444-222--0000-2/11111111-11~-----|  
-------------------------------------------------|  
-------------------------------------------------|  


Repeat Verse 1 x2  

Chorus 3  
e|-0-----0~----0----0~----0----2~-----------------|  
B|-5h7---5~----5h7--5~----5h7--2~-------3---------|  
G|-6-----6~----6----4~----4----2~-----2---2~------|  
D|-7-----7~----7----6~----6----4~---0-------------|  
A|------------------------------------------------|  
E|------------------------------------------------|  

e|-0-----00-00-00-00-0-----00-00-00-00-0-----22-22-22-22---00-00-00-00-----|  
B|-5h7---55-55-55-55-5h7---55-55-55-55-5h7---22-22-22-22---33-33-33-33-----|  
G|-6-----66-66-66-66-6-----44-44-44-44-4-----22-22-22-22---22-22-22-22-----| Repeat this   
until the  
D|-7-----77-77-77-77-7-----66-66-66-66-6-----44-44-44-44---00-00-00-00-----| songs fade out:)  
A|-------------------------------------------------------------------------|  
E|-------------------------------------------------------------------------|  

I'm Yours  

Well you done done me and you bet I felt it  
I tried to be chill but you're so hot that I melted  
I fell right through the cracks  
and now I'm trying to get back  
Before the cool done run out  
I'll be giving it my bestest  
Nothing's going to stop me but divine intervention  
I reckon it's again my turn to win some or learn some  

I won't hesitate no more, no more  
It cannot wait, I'm yours  

Well open up your mind and see like me  
Open up your plans and damn you're free  
Look into your heart and you'll find love love love love  
Listen to the music of the moment people dance and sing  
We're just one big family  
And It's our God-forsaken right to be loved love loved love loved  

So I won't hesitate no more, no more  
It cannot wait I'm sure  
There's no need to complicate  
Our time is short  
This is our fate, I'm yours  

Scooch closer dear  
and i will nibble your ear  

I've been spending way too long checking my tongue in the mirror  
And bending over backwards just to try to see it clearer  
My breath fogged up the glass  
And so I drew a new face and laughed  
I guess what i be saying is there ain't no better reason  
To rid yourself of vanity and just go with the seasons  
It's what we aim to do  
Our name is our virtue  

I won't hesitate no more, no more  
It cannot wait I'm sure  
There's no need to complicate  
Our time is short  
this is our fate, I'm yours  

Well no no, well open up your mind and see like me  
Open up your plans and damn you're free  
Look into your heart and you'll find the sky is yours  
Listen to the music of the moment come and dance with me  
A lá one big family (2nd time: A lá happy family; 3rd time: A lá peaceful melody)  
It's your God-forsaken right to be loved love love love  

I won't hesitate no more, no more  
It cannot wait, I'm sure  
There's no need to complicate  
Our time is short  
This is our fate, I'm yours  

No please, don't complicate  
Our time is short  
This is our fate, I'm yours  

No please, don't hesitate  
no more, no more  
It cannot wait  
The sky is your's! 

	  

im-yours-by-jason-mraz Play

Existe una video leccione para esta canción

view more
LosAcordes
Buscar
auto avanzar rasgueos aumentar disminuir cambiar color esconder acordes gráficos
losacordes exhibir acordes losacordes youTube video losacordes ocultar tabs losacordes ir hacia arriba losacordes