Janes Addiction

Início > Janes Addi... > acordes

Jane Says (remix) Tablatura

Janes Addiction

Dificultad:Ningún gradoNingún grado

tuner correct add songbook print version text version salvar en e-mail
acordesukuleletablaturabajobateríaarmónicaflautacavacopiano Guitar Pro
acordes

Jane Says (remix)

	  This song was a little monotonous, so I came up with this remix. Enjoy. 
 
-Standard Tuning 
-Tempo: 92 
 
Introduction/Chorus: 
   ^       ^   ^ v   v   v ^ v ^ v ^ 
e|-3-------3---3-0---0---0-0-0-0-0-3---| 
B|-3-------3---3-2---2---2-2-2-2-2-3---| 
G|-0-------0---0-2---2---2-2-2-2-2-0---| 
D|-0-------0---0-2---2---2-2-2-2-2-0---| 
A|-2-------2---2-0---0---0-0-0-0-0-2---| 
E|-3-------3---3-------------------3---| 
   1   &   2   &   3   &   4   &   1 
 
Verse: 
     ^   ^ v   v   v                 ^   ^ v   v   v ^ v ^ v ^ 
e|---3---3-0---0---0-------------|---3---3-0---0---0-0-0-0-0-3---| 
B|---3---3-2---2---2-------------|---3---3-2---2---2-2-2-2-2-3---| 
G|---0---0-2---2---2-4-2---------|---0---0-2---2---2-2-2-2-2-0---| 
D|---0---0-2---2---2-----4-2-0---|---0---0-2---2---2-2-2-2-2-0---| 
A|---2---2-0---0---0-------------|---2---2-0---0---0-0-0-0-0-2---| 
E|---3---3-----------------------|---3---3-------------------3---| 
 &   2   &   3   &   4   &   1   &   2   &   3   &   4   &   1 
 
2 Lines After Verse: 
   ^       ^   ^ v   v   v ^ v ^ v 
e|-0-------0---0-x---2---2-2-2-0-0---| 
B|-1-------1---1-x---3---3-3-3-0-0---| 
G|-0-------0---0-x---2---2-2-2-0-0---| 
D|-2-------2---2-----0---0-0-0-2-2---| 
A|-3-------3---3---------------3-3---| 
E|-----------------------------------| 
   1   &   2   &   3   &   4   & 
 
 
Get the lyrics at: http://www.lyricsdepot.com/janes-addiction/jane-says.html 
 

	  

No existe una video leccione para esta canción

request
LosAcordes
Buscar
auto avanzar rasgueos aumentar disminuir cambiar color esconder acordes gráficos
losacordes exhibir acordes losacordes youTube video losacordes ocultar tabs losacordes ir hacia arriba losacordes