Jack Johnson

Início > Jack Johns... > acordes

Gone Tablatura

Jack Johnson

Dificultad:PrincipiantePrincipiante

papapa

tuner correct add songbook print version text version salvar en e-mail
acordesukuleletablaturabaixobateríaarmónicaflautacavacopiano Guitar Pro
acordes

Gone

Áño: 2003 - Álbum: On and On

Tono:  E Más
Gone Key BB
Gone Key CC
Gone Key C#C#
Gone Key DD(Disminuir uno tono)
Gone Key D#D#(Disminuir uno semi-tono)
Gone Key EE(tono original)
Gone Key FF(Aumentar uno semi-tono)
Gone Key F#F#(Aumentar uno tono)
Gone Key GG
Gone Key G#G#
Gone Key AA
Gone Key A#A#
	  ----------- 
Intro:  4X 
----------- 
e------------------------- 
B--------9----------5----- 
G--------9----------6----- 
D-----9--9-------6--6----- 
A---7----------4---------- 
E------------------------- 
 
------------------ 
Verse:  As Needed 
------------------ 
e-------------------------------------------- 
B--------9----------------------5------------ 
G--------9----------5-----------6---------7-- 
D-----9--9-------6--6--------6--6---------7-- 
A---7---------------6------4-----------7--7-- 
E--------------4---------------------5------- 
 
 
on such lines as:  "streight from the mold...."   "things that concern you" 
add this part at the end of the verse 
 
e------------------------------------------------------ 
B--------10------------10------------------------------ 
G--------11------------11-------------8---------8------ 
D----11--11--11---11---11--11---------9---------9------ 
A--9------------9------------------9--9--9---9--9--9--- 
E--------------------------------7---------7----------- 
 
 
 
 
---------- 
Chorus: 
---------- 
 
e-------------------------------------------- 
B--------9----------------------5------------ 
G--------9----------8-----------6---------7-- 
D-----9--9----------9--------6--6---------7-- 
A---7------------9--9------4-----------7--7-- 
E--------------7---------------------5------- 
 
 

	  

No existe una video leccione para esta canción

request
LosAcordes
Buscar
auto avanzar rasgueos aumentar disminuir cambiar color esconder acordes gráficos
losacordes exhibir acordes losacordes youTube video losacordes ocultar tabs losacordes ir hacia arriba losacordes