iOTA

Início > iOTA > acordes

Time Tablatura

iOTA

Dificultad:Ningún gradoNingún grado

tuner correct add songbook print version text version salvar en e-mail
acordesukuleletablaturabajobateríaarmónicaflautacavacopiano Guitar Pro
acordes

Time

	  Title: Time 
Artist: iOTA 
 
Tuning : Standard EADGBE 
  
The intro and main part of the verses is just these two chords, an A and a G -   
  
E-------x------3-------- 
B-------2------3-------- 
G-------2------0-------- 
D-------2------0-------- 
A-------0------2-------- 
E-------0------3-------- 
 
Verse: 
  
   'Last night I sat laughing and lifted my head' 
E--------x-----------3------------x---------3--- 
B--------2-----------3------------2---------3--- 
G--------2-----------0------------2---------0--- 
D--------2-----------0------------2---------0--- 
A--------0-----------2------------0---------2--- 
---------0-----------3------------0---------3--- 
  
   'And felt the wind blow through my hair' 
E-------x-------------3---------------x-------3-- 
B-------2-------------3---------------2-------3-- 
G-------2-------------0---------------2-------0-- 
D-------2-------------0---------------2-------0-- 
A-------0-------------2---------------0-------2-- 
E-------0-------------3---------------0-------3-- 
  
   'My blood was a river that flowed deep and red' 
E------x-----------3----------x-----------3------ 
B------2-----------3----------2-----------3------ 
G------2-----------0----------2-----------0------ 
D------2-----------0----------2-----------0------ 
A------0-----------2----------0-----------2------ 
E------0-----------3----------0-----------3------ 
  
   'My eyes were tired but my mind was aware' 
E---x-------3-----------------0--0------2-3p2-0-0h2------- 
B---2-------3-----------------0----0----3-----------3----- 
G---2-------0-----------------1------2--2-------------2--- 
D---2-------0-----------------2---------0----------------- 
A---0-------2-----------------2---------0----------------- 
E---0-------3-----------------0---------0----------------- 
  
Then back to A/G and onto the second verse, which is pretty much the same except at the end -  
  
 '...over damages doooone...' 
E---------0-0------2-3p2-0-0h2-------0-----2-3p2-0-0h2-------x--- 
B---------0---0----3-----------3-----1-----3-----------3-----2--- 
G---------1-----1--2-------------2---0-----2-------------2---2--- 
D---------2--------0-----------------2-----0-----------------2--- 
A---------2--------0-----------------3-----0-----------------0--- 
E---------0--------0-----------------0-----0-----------------0--- 
  
Chorus: 
  
    'So if you start to cry and then sit asking...' 
E---3----------2----------------0---------------- 
B---3----------3----------------1---------------- 
G---0----------2----------------0---------------- 
D---0----------0----------------2---------------- 
A---2----------0----------------3---------------- 
E---3----------0----------------0---------------- 
  
   'yourself why,  you'll have it licked in time...' 
E----1--------------3--------------1------------- 
B----1--------------3--------------1------------- 
G----2--------------4--------------2------------- 
D----3--------------5--------------3------------- 
A----3--------------5--------------3------------- 
E----1--------------3--------------1------------- 
  
   '...to greet the morning' 
E-------0-0--------2-3p2-0-0h2------------------- 
B-------0---0------3-----------3----------------- 
G-------1-----1----2-------------2--------------- 
D-------2----------0----------------------------- 
A-------2----------0----------------------------- 
E-------0----------0----------------------------- 
  
Then it repeats, here it is with the chord names - 
  
G			D	 
And though you'll never see  
    C			F 
The desert shift inside of me 
G	     F 
Our future holds the key 
   E		  D 
It just takes time... 
  
Then back to the verse progression. 
  
Tabbed by Drew - [email protected] 
 
 

	  

No existe una video leccione para esta canción

request
Aumentar uno tonoAumentar uno tono
Aumentar uno semi-tonoAumentar uno semi-tono
Disminuir uno semi-tonoDisminuir uno semi-tono
Disminuir uno tonoDisminuir uno semi-tono
LosAcordes
Buscar
auto avanzar rasgueos aumentar disminuir cambiar color esconder acordes gráficos
losacordes exhibir acordes losacordes youTube video losacordes ocultar tabs losacordes ir hacia arriba losacordes