Inoue Joe

Início > Inoue Joe > acordes

Closer Tablatura

Inoue Joe

Dificultad:ExpertoExperto

LINEKERS

tuner correct add songbook print version text version salvar en e-mail
acordesukuleletablaturabajobateríaarmónicaflautacavacopiano Guitar Pro
acordes

Closer

	  
Intro: 
e|----------------------------------------| 
B|----------------------------------------| 
G|----------------------------------------| 
D|-22222222-44444444-44444444-------------| 
A|-22222222-44444444-22222222-66666666----| 
E|-00000000-22222222----------44444444----| (2x) 
  
Bridge : 
e|---------------------------------------------------------------------------| 
B|---------------------------------------------------------------------------| 
G|---------------------------------------------------------------------------| 
D|-22222222----------44444444----------------22222222----------88888888------| 
A|-22222222-44444444-22222222-66666666-------22222222-44444444-66666666------| 
E|-00000000-22222222----------44444444-(2x)--00000000-22222222---------------| 

e|---------------------------------------------------------------------------| 
B|---------------------------------------------------------------------------| 
G|---------------------------------------------------------------------------| 
D|-99999999-------------------44444444---------------------------------------| 
A|-77777777-22222222-44444444-22222222---------------------------------------| 
E|----------00000000-22222222------------------------------------------------| 

 VERSE 
e|-------------------------------| 
B|-------------------------------| 
G|-------------------------------| 
D|-44----------44----88-66-------| 
A|-22-88-66-44-22-22-66-44-44-44-| 
E|----66-44-22----00-------22-66-| 

e|-------------------------------| 
B|-------------------------------| 
G|-------------------------------| 
D|-44----------44----88-66-------| 
A|-22-88-66-44-22-22-66-44-44-| 
E|----66-44-22----00-------22-| 


CHORUS 
e|---------------------------------------------------------------------------| 
B|---------------------------------------------------------------------------| 
G|---------------------------------------------------------------------------| 
D|-22222222----------44444444----------------22222222----------88888888------| 
A|-22222222-44444444-22222222-66666666-------22222222-44444444-66666666------| 
E|-00000000-22222222----------44444444-(2x)--00000000-22222222---------------| 

e|-------------------------------------| 
B|-------------------------------------| 
G|-------------------------------------| 
D|-99999999-------------------44444444-| 
A|-77777777-22222222-44444444-22222222-| 
E|----------00000000-22222222----------| 

 VERSE 2  
e|-------------------------------| 
B|-------------------------------| 
G|-------------------------------| 
D|-44----------44----88-66-------| 
A|-22-88-66-44-22-22-66-44-44-44-| 
E|----66-44-22----00-------22-66-| 

e|-------------------------------| 
B|-------------------------------| 
G|-------------------------------| 
D|-44----------44----88-66-------| 
A|-22-88-66-44-22-22-66-44-44-| 
E|----66-44-22----00-------22-| 

CHORUS 2 
e|---------------------------------------------------------------------------| 
B|---------------------------------------------------------------------------| 
G|---------------------------------------------------------------------------| 
D|-22222222----------44444444----------------22222222----------88888888------| 
A|-22222222-44444444-22222222-66666666-------22222222-44444444-66666666------| 
E|-00000000-22222222----------44444444-(2x)--00000000-22222222---------------| 

e|-------------------------------------| 
B|-------------------------------------| 
G|-------------------------------------| 
D|-99999999-------------------44444444-| 
A|-77777777-22222222-44444444-22222222-| 
E|----------00000000-22222222----------| 

INTERLUDE 
e|-------------------------------------------------------------------------| 
B|-------------------------------------------------------------------------| 
G|-------------------------------------------------------------------------| 
D|-44444444----------88888888-------------------66666666-44444444----------| 
A|-22222222-44444444-66666666-88888888-66666666-44444444-22222222-22222222-| 
E|----------22222222----------66666666-44444444-------------------00000000-(2x) 


CHORUS 3 
e|---------------------------------------------------------------------------| 
B|---------------------------------------------------------------------------| 
G|---------------------------------------------------------------------------| 
D|-22222222----------44444444----------------22222222----------88888888------| 
A|-22222222-44444444-22222222-66666666-------22222222-44444444-66666666------| 
E|-00000000-22222222----------44444444-(2x)--00000000-22222222---------------| 

e|-------------------------------------| 
B|-------------------------------------| 
G|-------------------------------------| 
D|-99999999-------------------44444444-| 
A|-77777777-22222222-44444444-22222222-| 
E|----------00000000-22222222----------|  
	  

No existe una video leccione para esta canción

request
LosAcordes
Buscar
auto avanzar rasgueos aumentar disminuir cambiar color esconder acordes gráficos
losacordes exhibir acordes losacordes youTube video losacordes ocultar tabs losacordes ir hacia arriba losacordes