Incubus

Início > Incubus > acordes

Warning Tablatura

Incubus

Dificultad:PrincipiantePrincipiante

tuner correct add songbook print version text version salvar en e-mail
acordesukuleletablaturabajobateriaarmónicaflautacavacopiano Guitar Pro
acordes

Warning

	   
Standard Tuning (E A D G B) 
 
: = let ring 
 
Verse 
 
E| -------------------- 
B| -------------------- 
G| -------------------- 
D| -------------------- 
A| 9:-7-9:-7-9:-7-5:-4: 
E| 7:-5-7:-5-7:-5-3:-2: 
 
Pre-Chorus ("Over & Over & Over"/"Kudos to those who...") 
 
E| --------------- 
B| --------------- 
G| --------------- 
D| --------------- 
A| 4-------------- 
E| 2-2-2-2-2-2-0-0 
 
Chorus 
 
E| --------------------------------------------------------------- 
B| --------------------------------------------------------------- 
G| --------------------------------------------------------------- 
D| 9-9-9-9-9-9-7-7-9-9-9-9-9-9-7-7-9-9-9-9-9-9-7-7-5-5-5-5-4-4-4-4 
A| 9-9-9-9-9-9-7-7-9-9-9-9-9-9-7-7-9-9-9-9-9-9-7-7-5-5-5-5-4-4-4-4 
E| 7-7-7-7-7-7-5-5-7-7-7-7-7-7-5-5-7-7-7-7-7-7-5-5-3-3-3-3-2-2-2-2 
 
Bridge Pt. 1 ("Floating in this...") 
 
E| --------------- 
B| --------------- 
G| --------------- 
D| --------------- 
A| 4-------------- 
E| 2-2-2-2-2-2-0-0 
 
Bridge Pt. 2 
 
E| ----------------- 
B| ----------------- 
G| ----------------- 
D| ----------------- 
A| 9:-7-9:-7-9:-7-5: 
E| 7:-5-7:-5-7:-5-3: 
 
Bridge Pt. 3 
 
E| --------------------------------------------------------------- 
B| --------------------------------------------------------------- 
G| --------------------------------------------------------------- 
D| 9-9-9-9-9-9-7-7-9-9-9-9-9-9-7-7-9-9-9-9-9-9-7-7-5-5-5-5-4-4-4-4 
A| 9-9-9-9-9-9-7-7-9-9-9-9-9-9-7-7-9-9-9-9-9-9-7-7-5-5-5-5-4-4-4-4 
E| 7-7-7-7-7-7-5-5-7-7-7-7-7-7-5-5-7-7-7-7-7-7-5-5-3-3-3-3-2-2-2-2 
 
 
_______________________________________________________ 
Contribuição: Murdock Unknown([email protected]) 

	  

No existe una video leccione para esta canción

request
Aumentar uno tonoAumentar uno tono
Aumentar uno semi-tonoAumentar uno semi-tono
Disminuir uno semi-tonoDisminuir uno semi-tono
Disminuir uno tonoDisminuir uno semi-tono
LosAcordes
Buscar
auto avanzar rasgueos aumentar disminuir cambiar color esconder acordes gráficos
losacordes exhibir acordes losacordes youTube video losacordes ocultar tabs losacordes ir hacia arriba losacordes