Incubus

Início > Incubus > acordes

Stellar Tablatura

Incubus

Dificultad:ExpertoExperto

tuner correct add songbook print version text version salvar en e-mail
acordesukuleletablaturabajobateriaarmónicaflautacavacopiano Guitar Pro
acordes

Stellar

	   
verse 
 
g--------9/11-b11-b6--------------------- 
d-----9--9/11-b11-b6-6------6-6---6-7- 
a-0------------------------4-4-4---5------ 
e------------------------------------------- 
 
g----9-9/11-b11-b-6---------------------- 
d----9-9/11-b11-b-6--6------6-6-------6- 
a-0------------------------4-4-4----7-7---- 
e--------------------------------------------- 
 
pre chorus 
 
g-7----- 
d-7---9- 
a-5---9- 
e-----7-- 
 
chorus 
 
e---0-x-0-------------------- 
b---0-x-0-------------------- 
g---0-x-0--66666----------- 
d-x-7-x-7--66666--66-6/7- 
a-x-7-x-7--44444--66-6/7- 
e-x-5-x-5-----------44-4/5- 
 
interlude 
 
g-99/11-11-----996-6- 
d-99/11-11-----996-6- 
a-77/9---9------774-4- 
e------------------------- 
 
bridge 
 
d-------0---0--------------0--0------------0--0 
a----7---------7--------7--------7-------5----5 
e-5---------------5---5--------------53------3 
 
 
e------------------------------------------0-- 
b------------------------------------------0-- 
g------------------------------------------4-- 
d-----2--2----------2--2-----------7-----7-- 
a---2------2------2------2------5----5------ 
e-0----------0--0----------0--3-------------- 
 
then on the last time 
 
d------7-----5(build up) 
a---5----5---5 
e-3----------3 
 
then go into chorus 
 
ending 
 
d---6--6---6--7----------6-6----6-7---------9- 
a-4------5-----------4-4------5--------------7- 
e----------------------------------------------5- 
 
 
 
_______________________________________________________ 
Contribuição: Renata Fornasari([email protected]) 

	  

No existe una video leccione para esta canción

request
LosAcordes
Buscar
auto avanzar rasgueos aumentar disminuir cambiar color esconder acordes gráficos
losacordes exhibir acordes losacordes youTube video losacordes ocultar tabs losacordes ir hacia arriba losacordes