Incubus

Início > Incubus > acordes

Sink Beneath The Line Tablatura

Incubus

Dificultad:Ningún gradoNingún grado

tuner correct add songbook print version text version salvar en e-mail
acordesukuleletablaturabajobateríaarmónicaflautacavacopiano Guitar Pro
acordes

Sink Beneath The Line

	   
Incubus - Sink Beneath the Line 
 
As far as i know, this is the only tab for this song i've ever seen 
another rockin song from Incubus' first album..... 
 
INTRO 
 
GT1 
E -------------------------------------------------------- 
 B  -------------------------------------------------------- 
 G  ----------------------5---5-4-3------------------------- 
 D  -----5--5-4-3-1--0--2---2-------x-3h5------------------- 
A ---2---2----------3------------------------------------- 
E /3------------------------------------------------------ 
GT2, these are the chords; listen to the song for rhythm 
E 13----------------12---------19------------------------- 
 B  12----------------11---------17hb----------------------- 
 G  12----------------12------------------------------------ 
 D  -------------------------------------------------------- 
A -------------------------------------------------------- 
E -------------------------------------------------------- 
 
CHORUS 
i think this is right, but just play around with it... 
 
E --------15-15-------15-15--------20-20-|-20-19-18--x-13-15-|-------------|- 
 B  --------15-15-------15-15--------17-17-|-17-16-15--x-13-15-|----2nd-time-|- 
 G  -12-12--------12-12--------17-17-------|-------------------|-5----4----3-|- 
 D  ---------------------------------------|-----1st-time------|-5----4----3-|- 
A ---------------------------------------|-------------------|-3----2----1-|- 
E ---------------------------------------|-------------------|-------------|- 
 
 
VERSE 
 
E -------------------------------------------------------------------------------- 
 B  ----------------------------------------------------12b-12-10------------------- 
 G  ---------7~------7-6-5---5---------------------10~------------12-10--12-10-12-12 
 D  ---------6~------------7---7-6-5---------------9-~------------------------------ 
A -5-5--x--------------------------8-5-5---5-5-x---------------------------------- 
E -------------------------------------------------------------------------------- 
 
 
INTERLUDE 
 
GT1 
E ------------------------------------------------------------------------ 
 B  ------------------------------------------------------------------------ 
 G  -x-x-x-x-12-10-10-10----------10-----x-x-x-x-12-10-10-10---------------- 
 D  -x-x-x-x-12-10-10-10----10h12-10-----x-x-x-x-12-10-10-10--12s10----10s12 
A ----------------------------------------------------------------12------ 
E ------------------------------------------------------------------------ 
GT2 
w/ wah 
E ------------------------------------------------------------------------ 
 B  ------------------------------------------------------------------------ 
 G  -x-x-x-x-x--x--x--x------------------x-x-x-x-x--x--x--x----------------- 
 D  -x-x-x-x-x--x--x--x------------------x-x-x-x-x--x--x--x---10tr12-------- 
A ------------------------------------------------------------------------ 
E ------------------------------------------------------------------------ 
   o o o o +  +  +  +		       o o o o +  +  +  + 
 
GT1 
E ---------------------------------------------------------|------|-10-10-10-|- 
 B  ---------------------------------------------------------|------|-10-10-10-|- 
 G  -x-x-x-x-12-10-10-10----------10-----x-x-x-x-12-10-10-10-|-<7>--|-10-10-10-|- 
 D  -x-x-x-x-12-10-10-10----10h12-10-----x-x-x-x-12-10-10-10-|-<7>--|-10-10-10-|- 
A ---------------------------------------------------------|------|----------|- 
E ---------------------------------------------------------|------|----------|- 
GT2 
w/ wah 
E ------------------------------------------------------------------------ 
 B  ------------------------------------------------------------------------ 
 G  -x-x-x-x-x--x--x--x------------------x-x-x-x-x--x--x--x----------------- 
 D  -x-x-x-x-x--x--x--x------------------x-x-x-x-x--x--x--x----------------- 
A ------------------------------------------------------------------------ 
E ------------------------------------------------------------------------ 
   o o o o +  +  +  +		       o o o o +  +  +  + 
 
 
 
E ------------------------------------------------------------------------ 
 B  ------------------------------------------------------------------------ 
 G  -12-10------------------------------------------------------------------ 
 D  -----------12-10-------------------------------------------------------- 
A -------------------------------------10-8------------------------------- 
E ------------------------------------------------------------------------ 
 
E ------------------------------------------------------------------------ 
 B  ------------------------------------------------------------------------ 
 G  -12-10~----------------------------------------------------------------- 
 D  ------------------------------------------------------------------------ 
A ------------------------------------10-8-------------------------------- 
E ------------------------------------------------------------------------ 
 
E ------------------------------------------------------------------------ 
 B  ------------------------------------------------------------------------ 
 G  -12s10-10-10-10-10-10---10-1010--10-10-10-10---------------------------- 
 D  -12s10-10-9--9--9--9----10-1010--9--9--9--9----------------------------- 
A ------------------------------------------------------------------------ 
E ------------------------------------------------------------------------ 
 
 
BRIDGE 
 
E ------------------------ 
 B  ------------------------ 
 G  -10-----11----12-------- 
 D  -10-----11----12-------- 
A -8------9-----10-------- 
E ------------------------ 
 
 
PRE SOLO 
 
E -15---x-x--15----15-15-15-15-15-15-15-15--- 
 B  -12---x-x--14-xx-13-11-13-11-13-11-11-11--- 
 G  -12---x-x---------------------------------- 
 D  ------------------------------------------- 
A ------------------------------------------- 
E ------------------------------------------- 
 
 
SOLO 
 
 
E -------------------18--------15-------------------- 
 B  -17b----------------------17-----------18b18b18b15- 
 G  -17b-----17b-17-15----15--------15~---------------- 
 D  --------------------------------------------------- 
A --------------------------------------------------- 
E --------------------------------------------------- 
 
 
E -13-------13--------------------------------------- 
 B  ----15-15----15-16-17b--17b--17-15-17-15----------- 
 G  -----------------------------------------17-16-15-- 
 D  --------------------------------------------------- 
A --------------------------------------------------- 
E --------------------------------------------------- 
 
E ----------------18-17-15-18p17p15--18b--18--15----- 
 B  --------------------------------------------------- 
 G  --------------------------------------------------- 
 D  -17-17b-1515-15------------------------------------ 
A --------------------------------------------------- 
E --------------------------------------------------- 
 
 
 
E -18-15h18p15--------------------------------------- 
 B  -------------18-20-17b-17b-15-17-17b-17pbr-15------ 
 G  --------------------------------------------------- 
 D  --------------------------------------------------- 
A --------------------------------------------------- 
E --------------------------------------------------- 
 
E --------------20p15----18p15----20p15----18p15----- 
 B  --------------------15-------15-------15-------15-- 
 G  -17b-17br-15~-------------------------------------- 
 D  --------------------------------------------------- 
A --------------------------------------------------- 
E --------------------------------------------------- 
 
 
E 20p15-18p15-18p15----18p15----18p15----18p15------- 
 B  ------------------17-------17-------17-------17---- 
 G  --------------------------------------------------- 
 D  --------------------------------------------------- 
A --------------------------------------------------- 
E --------------------------------------------------- 
 
 
 
rest of the solo coming soon...... 
 

	  

No existe una video leccione para esta canción

request
LosAcordes
Buscar
auto avanzar rasgueos aumentar disminuir cambiar color esconder acordes gráficos
losacordes exhibir acordes losacordes youTube video losacordes ocultar tabs losacordes ir hacia arriba losacordes