Incubus

Início > Incubus > acordes

Nowhere Fast (ver. 2) Tablatura

Incubus

Dificultad:Ningún gradoNingún grado

tuner correct add songbook print version text version salvar en e-mail
acordesukuleletablaturabajobateriaarmónicaflautacavacopiano Guitar Pro
acordes

Nowhere Fast (ver. 2)

	  Drop D tuning (DADGBE) 
 
 
Intro 
 
-|-----------------------------------------------------------| 
-|-----------------------------------------------------------| 
-|-----0-0---------------------------------------------------|     
-|-----------4-4--------------333-~~~~~~~-888----------------|    
-|----------------0-0---------333---------888----------------|         
-|----------------------0-0---333---------888----------------|              
 
 
Chorus  (Distortion) 
-|---------------------------------------------------| 
-|---------------------------------------------------| 
-|---------------------------------------------------|Its just chord progressiong  
-|----0000------33--------88-------------------------| 
-|----0000------33-~~~~~~-88-------------------------| 
-|----0000------33--------88-------------------------| 
                                                                       
  Fill 1 
-|---------------------------------------------------| 
-|---------------------------------------------------| 
-|---------------------------------------------------| 
-|-----xxx-00---33----------88-----------------------| 
-|-----xxx-00---33---~~~~~--88-----------------------| 
-|-----xxx-00---33----------88-----------------------| 
 
 
Then he plays this in between (w/Delay pedal) 
-|---------2--------------14--------5----------0------| 
-|---------2------------------------5-----------------|   
-|---------2------------------------5-----------------| 
-|---------0------------------------0-----------------| 
-|----------------------------------------------------| 
-|----------------------------------------------------| 
 
 
 
-|-------------------9-----7-----------------------------------------|  
-|-------------7-------7-----7------------5----------------8-7-------|  
-|---------------6-------7-----7------------7------------------7-----|    
-|-----5---5/7-----4------------------5-------7--------8---------7---|     
-|---5---5--------------------------5---5-------5----8---8----------*|    
-|-5------------------------------5----------------8-----------------| 
                                                                        
 
     D5  7   10  (pre-chorus, volume swells..there played around there) 
     A5  7   10 
     D5  7   10 
 
-unky

Transcribed by Jonathan [email protected] 
Questions or anything just send to the adress right above this. 
	  

No existe una video leccione para esta canción

request
Aumentar uno tonoAumentar uno tono
Aumentar uno semi-tonoAumentar uno semi-tono
Disminuir uno semi-tonoDisminuir uno semi-tono
Disminuir uno tonoDisminuir uno semi-tono
LosAcordes
Buscar
auto avanzar rasgueos aumentar disminuir cambiar color esconder acordes gráficos
losacordes exhibir acordes losacordes youTube video losacordes ocultar tabs losacordes ir hacia arriba losacordes