Incubus

Início > Incubus > acordes

Nice To Know You Tablatura

Incubus

Dificultad:PrincipiantePrincipiante

tuner correct add songbook print version text version salvar en e-mail
acordesukuleletablaturabajobateriaarmónicaflautacavacopiano Guitar Pro
acordes

Nice To Know You

	  this is 100% correct, ive played it tons of times 
it is in standard eadgbe 
 
------------------------------------------------------------------------------ 
------------------------------------------------------------------------------ 
-9---------------14-------------14----------------9--------------------------- 
-9---------------14-------------14----------------9--------------------------- 
-7---------------12-------------12----------------7--------------------------- 
-7---------------12-------------12----------------7--------------------------- 
 then the hard part, which is the also the chorus                              
 
------------------------------------------------------------------------------ 
------------------------------------------------------------------------------ 
---------7------------------------7------------------------------------------- 
-2/444---7----2/444-------2/444---7-----2/4444/77------x4--------------------- 
-2/444---5----2/444-------2/444---5-----2/4444/77----------------------------- 
-0/222--------0/222-------0/222---------0/2222/55----------------------------- 
 then the intro which is also the verse                                        
 
------------------------------------------------------------------------------ 
------------------------------------------------------------------------------ 
-9---------------14-------------14----------------9--------------------------- 
-9---------------14-------------14----------------9--------------------------- 
-7---------------12-------------12----------------7--------------------------- 
-7---------------12-------------12----------------7--------------------------- 
 then into the prechorus                                                       
 
------------------------------------------------------------------------------ 
-2--------------------------5------------------------------------------------- 
-2--------------1-----------4------------3------------------------------------ 
-2--------------2-----------5------------4---------7\2---------x2------------- 
-----------------------------------------4---------7\2------------------------ 
-----------------------------------------2---------5\0------------------------ 
 then into the hard part again(chorus), then another verse,prechorus,chorus    
 
----------0--0-----------0---0----0------------------------------------------- 
----------0--0-----------0---0----0------------------------------------------- 
----------0--0-----------0---0----0----2-------------------------------------- 
----------4--2-----------4---2----4----2-------------------------------------- 
-0-3-5-0-----3---0-3-5-0-----3----5------------------------------------------- 
------------------------------------------------------------------------------ 
 then into whats above                                                         
 
-------------0---0----0----0---------------0---0----0------------------------- 
------------0-0--0----3----0--------------0-0--0----0------------------------- 
-----------0---0-0----0----0-------------0---0-0----0---2--------------------- 
----------4------2----2----2------------4------2----4---2--------------------- 
-0-3-5-0---------3----3----3----0-3-5-0--------3----5------------------------- 
------------------------------------------------------------------------------ 
                                                                               
 
---------0--0----0----0---------------0---0-----0----------------------------- 
---------0--0----3----0--------------0-0--0-----0----------------------------- 
---------0--0----0----0-------------0---0-0-----0----2------------------------ 
---------4--2----2----2------------4------2-----4----2------------------------ 
-0-3-5-0----3----3----3----0-3-5-0--------3-----5----------------------------- 
------------------------------------------------------------------------------ 
 then into the prechorus and then the chorus and end on this                   
 
------------------------------------------------------------------------------ 
------------------------------------------------------------------------------ 
------------------------------------------------------------------------------ 
--7\4\2----------------------------------------------------------------------- 
--7\4\2----------------------------------------------------------------------- 
--5\2\0-----------------------------------------------------------------------
 


Transcribed by: Mike Hoffman 
	  

No existe una video leccione para esta canción

request
LosAcordes
Buscar
auto avanzar rasgueos aumentar disminuir cambiar color esconder acordes gráficos
losacordes exhibir acordes losacordes youTube video losacordes ocultar tabs losacordes ir hacia arriba losacordes