Incubus

Início > Incubus > acordes

Mexico Ver Tablatura

Incubus

Dificultad:Ningún gradoNingún grado

tuner correct add songbook print version text version salvar en e-mail
acordesukuleletablaturabajobateríaarmónicaflautacavacopiano Guitar Pro
acordes

Mexico Ver

	  Tabber: c0z420 
 
Standard Tuning 
 
Main Riff 
|-----0------0------0------0-----------------------0------0- 
|-----0------0------0------0-----------------------x------x- 
|------------------------------------7------7------2------2- 
|---9------9------5------5-----------0------0--------------- 
|-7------7------3------3-----------0------8------3------3--- 
|-----------------------------0--6------6------1------1----- 
 
 
Chorus (next 3 staffs + main riff) 
|------------------------------------------------------------ 
|-------0-0-0--------------------------0-------------0---0--- 
|-------0-0-0-0-0-0-0-0-0-0-0-0------0-0-0---0-0-0-0-0---0--- 
|---------4-4-0-0-0-0-0-0-0-0-0----5---------2-2-0-0-0-0-0-0- 
|-----2---------x-x-x-x-x-x-x-x--3---------0-0-0-0-0---0-0-0- 
|-1-0-----------3-3-3-3-3-3-3-3--------------------------0-0- 
 
|--------------------------------------------------------- 
|-----0-0-0----------------------------------------------- 
|-----0-0-0-0--0-0-0-0-0-0-0-0--7-7-7-7-----5-5-5-5-5-5-5- 
|-------4-4-0--0-0-0-0-0-0-0-0--7-7-7-7-----5-5-5-5-5-5-5- 
|---2----------x-x-x-x-x-x-x-x--5-5-5-5--0--3-3-3-3-3-3-3- 
|-0------------3-3-3-3-3-3-3-3--5-5-5-5--0--3-3-3-3-3-3-3- 
 
|----------------------------------------------------------- 
|-----0-0-0-------------------------0-----0-0-0-0-0-0-0-0--- 
|-----0-0-0-0-0-0-0-0-0-0-0-0-----0-0-0---0-0-0-0-0-0-0-0-0- 
|-------4-4-0-0-0-0-0-0-0-0-0---5---------2-2-2-2-2-2-2-2-0- 
|---2---------x-x-x-x-x-x-x-x-3---------0-0-0-0-0-0-0-0-0-0- 
|-0-----------3-3-3-3-3-3-3-3------------------------------- 
 
 
 
|-----0------0------0------0-----------------------0------0- 
|-----0------0------0------0-----------------------x------x- 
|------------------------------------7------7------2------2- 
|---9------9------5------5---5-------0------0--------------- 
|-7------7------3------3-----------0------8------3------3--- 
|------------------------------0-6------6------1------1----- 
 
 
Bridge 
|-------------------------------------------------------- 
|-------------------------------------------------------- 
|-0-0-0-0-0--2-2-2-2-2-2-2-2-------------0-0-0-0-0-0-0-0- 
|-0-0-0-0-0--1-1-1-1-1-1-1-1--4-4-4-4-4--x-x-x-x-x-x-x-x- 
|-x-x-x-x-x--2-2-2-2-2-2-2-2--2-2-2-2-2--3-3-3-3-3-3-3-3- 
|-3-3-3-3-3-------------------0-0-0-0-0--3-3-3-3-3-3-3-3- 
 
|------------------------------------------------ 
|------------------------------------------------ 
|--------------------------0-0-0-0-0-0-0-0-0-0-0- 
|-5-5-5-5-5-5-5-5-5-5-5-5--3-3-3-3-3-3-3-3-3-3-3- 
|-4-4-4-4-4-4-4-4-4-4-4-4--3-3-3-3-3-3-3-3-3-3-3- 
|-5-5-5-5-5-5-5-5-5-5-5-5--1-1-1-1-1-1-1-1-1-1-1- 
 
 
Outro 
|-----0------0------0------0-----------------------0------0- 
|-----0------0------0------0-----------------------x------x- 
|------------------------------------7------7------2------2- 
|---9------9------5------5---5-------0------0--------------- 
|-7------7------3------3-----------0------8------3------3--- 
|------------------------------0-6------6------1------1----- 
 
|------0------0--0------0------0- 
|------x------0--0------x------0- 
|------2------2--2------2------2- 
|------------------------------3- 
|---3-------3---------3--------3- 
|-1-------1---------1------1---1-
	  

No existe una video leccione para esta canción

request
LosAcordes
Buscar
auto avanzar rasgueos aumentar disminuir cambiar color esconder acordes gráficos
losacordes exhibir acordes losacordes youTube video losacordes ocultar tabs losacordes ir hacia arriba losacordes