Incubus

Início > Incubus > acordes

Megalomaniac Tablatura

Incubus

Dificultad:PrincipiantePrincipiante

tuner correct add songbook print version text version salvar en e-mail
acordesukuleletablaturabajobateríaarmónicaflautacavacopiano Guitar Pro
acordes

Megalomaniac

	  This here is another new song by Incubus from Lollapalooza, 
and here is the tab for Megalomaniac, go check out Pistola also- 
 
Intro- 
----------------------------------------------------------- 
----------------------------------------------------------- 
----------------------------------------------------------- 
-------------8-8--------------------------------------------- 
--10--10--10----------------------------------------------------- 
-----------------10-11-11-11--------------------------------------- 
The intro is basically using the minor mode of the major scale of D#,
 so u can probably figure it out with that. 
 
Chorus.intro also- 
----------------------------------------------------------- 
----------------------------------------------------------- 
-----------8-8---3--5-5-5---------------------------------- 
--5-5--8---8-8---3--5-5-5---------------------------------- 
--5-5--8---6-6---1--3-3-3---------------------------------- 
--3-3--6--------------------------------------------------- 
 
Verse- 
----------------------------------------------------------- 
----------------------------------------------------------- 
---------------10----------10-----------12----------------- 
------------------------10-----------12-------------------- 
-8--10--10--10--------8-----------10----------------------- 
--------------------8----------10-------------------------- 
Like i said, he uses the D# minor key scale thingy, but this will give u an idea. 
 
Then it goes to chorus, then another verse, then another chorus. 
 
Breakdown is ben goin on bass, and mike doin this- 
-------10-------10-------10--------10---------------------- 
----10-------10-------10--------10------------------------- 
-12-------12-------12--------12---------------------------- 
----------------------------------------------------------- 
----------------------------------------------------------- 
----------------------------------------------------------- 
 
And that's about it. Again, this is just a rough sketch, so find the rhythm urself, 
this will guide u. Thanks a bunch.
	  

No existe una video leccione para esta canción

request
Aumentar uno tonoAumentar uno tono
Aumentar uno semi-tonoAumentar uno semi-tono
Disminuir uno semi-tonoDisminuir uno semi-tono
Disminuir uno tonoDisminuir uno semi-tono
LosAcordes
Buscar
auto avanzar rasgueos aumentar disminuir cambiar color esconder acordes gráficos
losacordes exhibir acordes losacordes youTube video losacordes ocultar tabs losacordes ir hacia arriba losacordes