Incubus

Início > Incubus > acordes

Make Yourself Tablatura

Incubus

Dificultad:Ningún gradoNingún grado

tuner correct add songbook print version text version salvar en e-mail
acordesukuleletablaturabajobateriaarmónicaflautacavacopiano Guitar Pro
acordes

Make Yourself

	   
The intro is the same thing as the beginnging (the softer part) of 
the verse... 
 
Standard Tuning (E A D G B E) 
 
x = scratch 
 
Intro 
 
E| ----------------------------------------------- 
B| ----------------------------------------------- 
G| ----------------------------------------------- 
D| ----------------------------------------------- 
A| 9-x-5-5-x-5-5-x-8-8-8-9-x-5-5-x-5-5-x-8-8-8-8-8 
E| 7-x-3-3-x-3-3-x-6-6-6-7-x-3-3-x-3-3-x-6-6-6-6-6 
 
Verse 
 
E| ----------------------------------------------- 
B| ----------------------------------------------- 
G| ----------------------------------------------- 
D| 9-x-5-5-x-5-5-x-8-8-8-9-x-5-5-x-5-5-x-8-8-8-8-8 
A| 9-x-5-5-x-5-5-x-8-8-8-9-x-5-5-x-5-5-x-8-8-8-8-8 
E| 7-x-3-3-x-3-3-x-6-6-6-7-x-3-3-x-3-3-x-6-6-6-6-6 
 
Interlude ("Bahhh, yeah...") 
 
E| ------------------------------- 
B| ------------------------------- 
G| 7-7-7-7-7---------------------- 
D| 7-7-7-7-7-8-8-8-5-5-5-5-5-3-3-3 
A| 5-5-5-5-5-8-8-8-5-5-5-5-5-3-3-3 
E| ----------6-6-6-3-3-3-3-3-1-1-1 
 
Chorus 
 
E| ------------------------------- 
B| ------------------------------- 
G| 7-7-7-7-7---------------------- 
D| 7-7-7-7-7-8-8-8-5-5-5-5-5-8-8-8 
A| 5-5-5-5-5-8-8-8-5-5-5-5-5-8-8-8 
E| ----------6-6-6-3-3-3-3-3-6-6-6 
 
E| ------------------------------- 
B| ------------------------------- 
G| 7-7-7-7-7---------------------- 
D| 5-5-5-5-5-8-8-8-5-5-5-5-5-3-3-3 
A| 5-5-5-5-5-8-8-8-5-5-5-5-5-3-3-3 
E| ----------6-6-6-3-3-3-3-3-1-1-1 
 
Bridge pt. 1 
 
E| ------- 
B| ------- 
G| ------- 
D| ------- 
A| 0-2---- 
E| ----3-3 
 
Bridge pt. 2 
 
E| ------------- 
B| ------------- 
G| ------------- 
D| --------8-8-8 
A| 0-2-----8-8-8 
E| ----3-3-6-6-6 
 
Bridge pt. 3 
 
E| ------------------- 
B| ------------------- 
G| ------------------- 
D| 9-x-5-5-x-5-5-x-8-8 
A| 9-x-5-5-x-5-5-x-8-8 
E| 7-x-3-3-x-3-3-x-6-6 
 
Outro 
 
E| --------------------- 
B| --------------------- 
G| --------------------- 
D| 9-x-5-5-x-5-5-x-8-8-8 
A| 9-x-5-5-x-5-5-x-8-8-8 
E| 7-x-3-3-x-3-3-x-6-6-6 
 
 
_______________________________________________________ 
Contribuição: Murdock Unknown([email protected]) 

	  

No existe una video leccione para esta canción

request
Aumentar uno tonoAumentar uno tono
Aumentar uno semi-tonoAumentar uno semi-tono
Disminuir uno semi-tonoDisminuir uno semi-tono
Disminuir uno tonoDisminuir uno semi-tono
LosAcordes
Buscar
auto avanzar rasgueos aumentar disminuir cambiar color esconder acordes gráficos
losacordes exhibir acordes losacordes youTube video losacordes ocultar tabs losacordes ir hacia arriba losacordes