Incubus

Início > Incubus > acordes

La La La Zoom Zoom Zoom Tablatura

Incubus

Dificultad:Ningún gradoNingún grado

PAULLET3

tuner correct add songbook print version text version salvar en e-mail
acordesukuleletablaturabajobateríaarmónicaflautacavacopiano Guitar Pro
acordes

La La La Zoom Zoom Zoom

	  tabbed by: zackjp 

The chords and strumming patterns seem mostly accurate. Although I think the intro/ 
Instrumental probably has a slightly different strumming than I laid out here. 

Have fun! :) 


Tuning: Standard EADGBe 


Intro/Instrumental 
e-------------------------------------------------| 
B-------5-----5--------5-----5-----5--------5-----| 
G-------6-----4~6------6-----6-----6--------6-----| 
D-------7-----7--------7-----7-----7--------7-----| 
A-0-----------------0-----------------------------| 
E-------------------------------------0-----------| 

  1  x  2  x  3  x  4  x  1  x  2  x  3  x  4  x 


e-------------------------------------------------| 
B-------5-----5--------5-----5-----5--------5-----| 
G-------5-----4~5------5-----5-----5--------5-----| 
D-------5-----5--------5-----5-----5--------5-----| 
A-0-----------------0-----------------------------| 
E-------------------------------------0-----------| 

  1  x  2  x  3  x  4  x  1  x  2  x  3  x  4  x 



Verse 
e-------------------------------------------------| 
B-8-----8--------8-----7-----7-----7--------7-----| 
G-7-----7--------7-----6-----6-----6--------6-----| 
D-9-----9--------9-----7-----7-----7--------7-----| 
A-7-----7-----7-----------------------------------| 
E----------------------5-----5--------5-----------| 

  1  x  2  x  3  x  4  x  1  x  2  x  3  x  4  x 


e-------------------------------------------------| 
B-6-----6--------6-----5-----5-----5--------5-----| 
G-5-----5--------5-----4-----4-----4--------4-----| 
D-4-----4--------4-----5-----5-----5--------5-----| 
A-5-----5-----5-----------------------------------| 
E----------------------3-----3--------3-----------| 

  1  x  2  x  3  x  4  x  1  x  2  x  3  x  4  x 


e-------------------------------------------------| 
B-8-----8--------8-----7-----7-----7--------7-----| 
G-7-----7--------7-----6-----6-----6--------6-----| 
D-9-----9--------9-----7-----7-----7--------7-----| 
A-7-----7-----7-----------------------------------| 
E----------------------5-----5--------5-----------| 

  1  x  2  x  3  x  4  x  1  x  2  x  3  x  4  x 


e-------------------------------------------------| 
B-10----10-------10----7-----7-----7--------7-----| 
G-9-----9--------9-----8-----8-----8--------8-----| 
D-7-----7--------7-----7-----7-----7--------7-----| 
A-9-----9-----9-----------------------------------| 
E----------------------7-----7--------7-----------| 

  1  x  2  x  3  x  4  x  1  x  2  x  3  x  4  x 
	  

No existe una video leccione para esta canción

request
LosAcordes
Buscar
auto avanzar rasgueos aumentar disminuir cambiar color esconder acordes gráficos
losacordes exhibir acordes losacordes youTube video losacordes ocultar tabs losacordes ir hacia arriba losacordes